Cifra Club

Narcosynthesis

Nevermore

Cifrado: Principal (guitarra y guitarra eléctrica)
tono: A
..  - palm mute          /  - slide up to
 \  - slide down to      ~  - vibrato
 h  - hammer on          b  - bend
 p  - pull off            Suffixes for bend
                          ph - pinch harmonic
                           f - full bend    h - half bend
r - release                 t - tap bend
X  - percussion mute       ~ - vibrato bend
() - ghost note, sustained note
                           n.h - natural harmonics


7-string tuned down 1/2 step

Intro Sequence

|---------------------------------------------------|
|---------------------------------------------------|
|---------------------------------------------------|
|---------------------------------------------------|
|---------------------------------------------------|
|---------------------------------------------------|
|-6--0-6--0-6--0-6-0-6-0---6--0-6--0-6--0-6-7-6-0---|

|---------------------------------|
|---------------------------------|
|---------------------------------|
|--------------------------------:| x4
|---------------------------------|
|--------------------2-2-2-2------|
|-6--0-6--0-6--0-6\--0-0-0-0------|
                     . . . . 

Verse             
|----------------------------------------------------------|
|----------------------------------------------------------|
|----------------------------------------------------------|
|----------------------------------------------------------|
|-2-2-2-2---2-2-2-2---2-2-2-2---2-2-2-2---2-2-2-2-2-2-2-2--|
|-2-2-2-2---2-2-2-2---2-2-2-2---2-2-2-2---2-2-2-2-2-2-2-2--|
|-0-0-0-0---0-0-0-0---0-0-0-0---0-0-0-0---0-0-0-0-0-0-0-0--|
  . . .     . . .     . . .     . . .     . . . . . . . .

|----------------------------------------------------------|
|----------------------------------------------------------|
|----------------------------------------------------------|
|----------------------------------------------------------|
|-2-2-2-2---2-2-2-2---2-2-2-2---2-2-2-2-2---2-2-2--2-2-2---|
|-2-2-2-2---2-2-2-2---2-2-2-2---2-2-2-2-2---2-2-2--2-2-2---|
|-0-0-0-0---0-0-0-0---0-0-0-0---0-0-0-0-0---0-0-0--0-0-0---|
  . . .     . . .     . . .     . . . . .   . . .  . . . 

PreChorus
|------------------------------------------------------------|
|------------------------------------------------------------|
|------------------------------------------------------------|
|------------------------------------------------------------|
|------------------------------------------------------------|
|------------------------------------------------------------|
|-4--0-4--0-4---0-4-0-4-5-4-0---7--0-7--0-7---0-7-0-7-8-7-0--|

|------------------------------------------------------------|
|------------------------------------------------------------|
|------------------------------------------------------------|
|-----------------------------------------------------------:| x2
|------------------------------------------------------------|
|------------------------------------------------------------|
|-1--0-1--0-1---0-1-0-1-2-1-0---1--0-1--0-1---0-1-0-1-2-1-0--|

Verse Guitar Fill1(Play over Verse)
|-8-7-7-7-7-7-8-7-7-7-7-7-8-7-7-7-7-7-8-7-8-10-8-7-8-7----8-7---------|
|------------------------------------------------------10-----10-8-10-|
|---------------------------------------------------------------------|
|---------------------------------------------------------------------|
|---------------------------------------------------------------------|
|---------------------------------------------------------------------|
|---------------------------------------------------------------------|

|-8-7-7-7-7-7-8-7-7-7-7-7-8-7-7-7-7-7-8-7-8-10-8-7-8-7----7-----------|
|------------------------------------------------------10---10~-------|
|---------------------------------------------------------------------|
|---------------------------------------------------------------------|
|---------------------------------------------------------------------|
|---------------------------------------------------------------------|
|---------------------------------------------------------------------|

Play Verse
Play Prechorus

Chorus Bridge   
|--------------n.h-------------------------|
|------------------------------------------|
|---------------5--------------------------|
|---------------5--------------------------|
|-2--------------------2-------------------|
|-2---2--2-2-2---------2---2--2-2-2---3/5--|
|-0---0--0-0-0---------0---0--0-0-0---1/3--|
      .  . . .             .  . . .

|---------------------------------|
|---------------------------------|
|---------------------------------|
|---------------------------------|
|-2-------------------------------|
|-2---2--2-2-2--3-2---7---7----3--|
|-0---0--0-0-0--1-0---5---4----1--|
      .  . . .

Chorus
|-----------------------------------------------|
|-----------------------------------------------|
|-----------------------------------------------|
|-----------------------------------------------|
|-7---7--7/10--10-10--10\4----4/5--4--3---3-3-2-|
|-7---7--7/10--10-10--10\4----4/5--4--3---3-3-2-|
|-5---5--5/8---8--8---8-\2----2/3--2--1---0-1-0-|

                                  1st Ending          2nd Ending
|--------------------------------|--------------|    |--------------|
|--------------------------------|--------------|    |--------------| 
|--------------------------------|--------------|    |--------------| 
|--------------------------------|-------------:|x2  |--------------|
|-7---7--7/10--10-10--10---7--7--|--------3-3-2-|    |--------------|
|-7---7--7/10--10-10--10---5--5--|-6------3-3-2-|    |-5------5-4-2-|
|-5---5--5/8---8--8---8----------|-4------0-1-0-|    |-4------4-3-1-|
                                                              . . .
Play intro 
Play Verse
Play Chorus


Solo I 


Part1 (Wah) 
(volume swell)
|--14r12-|-------------------------------------------------------|
|--------|-------------------------------------------------------|
|--------|--4~----4--4/7~-------6--6h7-6~---5---5h7---5h7p5p4~---|
|--------|-------------------------------------------------------|
|--------|-------------------------------------------------------|
|--------|-------------------------------------------------------|
|--------|-------------------------------------------------------|

|---------------------------------------|
|---------------------------------------|
|-4/9---9h11--9---11--11~-9-------------|
|----------------------------9~---------|
|---------------------------------------|
|---------------------------------------|
|---------------------------------------|

Part2
|-15-12-0-12-0----0---------------0-12----0--|
|--------------13---13-12-0-12-13------12----|
|--------------------------------------------|
|--------------------------------------------|
|--------------------------------------------|
|--------------------------------------------|
|--------------------------------------------|

|-15/19p15-0-15-0-12-0-12---------12-0-15-12----|
|-------------------------12-0-12------------15-|
|-----------------------------------------------|
|-----------------------------------------------|
|-----------------------------------------------|
|-----------------------------------------------|
|-----------------------------------------------|

|-15-12-0-12-0----0---------------0-12----0--|
|--------------13---13-12-0-12-13------12----|
|--------------------------------------------|
|--------------------------------------------|
|--------------------------------------------|
|--------------------------------------------|
|--------------------------------------------|

|-17/20-17-0-17-0----0-----------------------------|
|-----------------19---19-16-0-16-19-16------------|
|---------------------------------------16-17-14~--|
|-------------------------------------------------:| x2
|--------------------------------------------------|
|--------------------------------------------------|
|--------------------------------------------------|

Part3(Wah)
|-------------------------------------------------------------------------|
|-------------------------------------------------------------------------|
|-------------------------------------------------------------------------|
|--7~--7-7h9-7-7/9~--9--9h10-9-9/10~-10-12-10-12/14--12h14p12\10--9--7--5:|x2
|-------------------------------------------------------------------------|
|-------------------------------------------------------------------------|
|-------------------------------------------------------------------------|

|---------------------------------------|
|---------------------------------------|
|---------------------------------------|
|-7b9~----------------------------------|
|---------------------------------------|
|---------------------------------------|
|---------------------------------------|


Play Chorus Bridge
Play Verse
Play Chorus



Ending Riff
|-------------------------------------------------------------|
|-------------------------------------------------------------|
|-------------------------------------------------------------|
|-------------------------------------5--4--3-----------------|
|-------------------------------------3--2--1-------8--7--5---|
|-7------7--6--5-------5--4--3----------------------6--5--3---|
|-5---0--5--4--3----0--3--2--1-----1-------------0------------|

Solo II
Very much like part3 of soloI.

Play Intro

The End
00:00 / 00:00
Otros videos de esta canción
Repetir
Otros videos de esta canción
Composición de Jeff Loomis / Warrel Dane
Colaboración y revisión:
  • Daniel Junior
13 vistas
    • ½ Tono
    • A
    • Bb
    • B
    • C
    • Db
    • D
    • Eb
    • E
    • F
    • F#
    • G
    • Ab
  • Agregar a la lista

    0 comentarios

    Ver todos los comentarios

    ¿Lograste tocar?

    0 Tocaron 0 Aún no

    ¡Graba un video tocando Narcosynthesis y envíanoslo!

    00:00 / 00:00
    OK