Cifra Club

Ballad For The Lost Romantics

New Found Glory

Cifrado: Principal (guitarra y guitarra eléctrica)
tono: E
Standard Tuning 

Intro (x2)/Verse (x2): 
e |------------------------------------------| 
B |------------------------------------------| 
G |-4-4--------------------------------------| 
D |-4-4--4-4--2-2--6-6--4-4---------4--------| 
A |-2-2--4-4--2-2--6-6--4-4---------4--------| 
E |------2-2--0-0--4-4--2-2---------2--------| 
       (last time) 

Prechorus (x4): 
e |------------------------------------------| 
B |------------------------------------------| 
G |------------------------------------------| 
D |-2-2-2---6-6--4-4-------------------------| 
A |-2-2-2---6-6--4-4-------------------------| 
E |-0-0-0---4-4--2-2-------------------------| 

Verse 2 (x4): (same as intro/verse) 

Prechorus 2 (x4): (same as prechorus) 

Chorus (x4): 
e |-------------------------------------------------| 
B |-------------------------------------------------| 
G |-4-4-4-----------------------------4-4--4-4--4-4-| 
D |-4-4-4--6-6--4-4--2-2--4--6--4--2--4-4--4-4--4-4-| 
A |-2-2-2--6-6--4-4--2-2--4--6--4--2--2-2--2-2--2-2-| 
E |--------4-4--2-2--0-0--2--4--2--0----------------| 

Bridge (x8): 
e |------------------------------------------| 
B |------------------------------------------| 
G |-4-4--------------------------------------| 
D |-4-4--6--4-4--6---------------------------| 
A |-2-2--6--4-4--6---------------------------| 
E |------4--2-2--4---------------------------| 

Prechorus 3 (x4): (same as prechorus) 

Chorus 2 (x4): (same as chorus) 

Bridge 2 (x4): (same as bridge) 
Composición de New Found Glory
Colaboración y revisión:
  • Leandro Bitencourt
10 vistas
    • ½ Tono
    • A
    • Bb
    • B
    • C
    • Db
    • D
    • Eb
    • E
    • F
    • F#
    • G
    • Ab
  • Agregar a la lista

    0 comentarios

    Ver todos los comentarios

    ¿Lograste tocar?

    0 Tocaron 0 Aún no

    ¡Graba un video tocando Ballad For The Lost Romantics y envíanoslo!

    00:00 / 00:00
    Outros vídeos desta música
    Repetir Calidad Automático
    Outros vídeos desta música
    00:00 / 00:00
    Automático
    OK