Cifra Club

Better Off Dead

New Found Glory

Tab de bajo: Principal
Tabbed by Ryan Trump - *
Submitted by Matt V. - *

Intro/First Verse
G|----------------
D|----------------
A|-22-------------
E|----22-00-44-22-

Second Verse
G|--------------------
D|--------------------
A|-22222222-----------
E|----------4444-2222-

Chorus (listen to the CD for this one)
G|------------------|-------------------
D|------------------|-------------------
A|-22222------------|-22----------------
E|-------2-000-4-2--|----22-00-44444444-

Final Verse
G|-------------------------
D|-------------------------
A|-22----------22----------
E|----44-22-00----44-22-44-


Song Order
2x Intro
2x 1st Verse
4x 2nd Verse
4x 1st Verse
4x 2nd Verse
4x Chorus
4x Final Verse
4x 2nd Verse
4x Chorus
2x Final Verse
Composición de New Found Glory
11 vistas

0 comentarios

Ver todos los comentarios

¿Lograste tocar?

0 Tocaron 0 Aún no

¡Graba un video tocando Better Off Dead y envíanoslo!

00:00 / 00:00
Outros vídeos desta música
Repetir Calidad Automático
Outros vídeos desta música
00:00 / 00:00
Automático
OK