Cifra Club

Ex-Miss

New Found Glory

Cifrado: Principal (guitarra y guitarra eléctrica)
tono: G
Intro

e|---------------------------------|
B|------8-----5--------------------|
G|---------7-----5-----------------|VARIAS VEZES
D|---------------------------------|
A|---------------------------------|
E|---------------------------------|

VERSO
e|---------------------------------------------------------------------------|
B|---------------------------------------------------------------------------|
G|---------------------------------------------------------------------------|
D|-------5--------5--------5--------5----------------------------------------|
A|--5----3----5---3----5---3----5---3----------------------------------------|
E|--3---------3--------3--------3--------------------------------------------|

e|---------------------------------------------------------------------------|
B|---------------------------------------------------------------------------|
G|---------------------------------------------------------------------------|
D|--9--9--9--9----7--7--7--7----5--5--5--5----7--7--7--7---------------------|
A|--7--7--7--7----5--5--5--5----3--3--3--3----5--5--5--5---------------------|
E|---------------------------------------------------------------------------|

e|---------------------------------------------------------------------------|
B|---------------------------------------------------------------------------|
G|---------------------------------------------------------------------------|
D|--9--9--9--9----7--7--7--7----5-/-4--5--7----------------------------------|
A|--7--7--7--7----5--5--5--5----3-/-2--3--5----------------------------------|
E|---------------------------------------------------------------------------|

Refrâo
e|---------------------------------------------------------------------------|
B|---------------------------------------------------------------------------|
G|---------------------------------------------------------------------------|
D|-----------------5--5--5--5---2-2-2----7--7--7-----------------------------|
A|--5--5--5--5-----3--3--3--3---2-2-2----5--5--5-----------------------------|
E|--3--3--3--3------------------0-0-0----------------------------------------|

e|---------------------------------------------------------------------------|
B|---------------------------------------------------------------------------|
G|---------------------------------------------------------------------------|
D|---------------5--5--5--5---2-2-2---7--7--7--7-------------------7--7--7--7|
A|--5--5--5--5---3--3--3--3---2-2-2---5--5--5--5---10--10--10--10--5--5--5--5|
E|--3--3--3--3----------------0-0-0----------------8---8---8---8-------------|


VERSO
REFRAO


Solo
e|----------------------------------------------------------------------------|
B|----------------------------------------------------------------------------|
G|------------0-----------------0-------------------0--9---7-7--5-------------|2x
D|-0-0-0-9--7---0----0-0-0-9-7------------------9-7---------------7-9---------|
A|---------------------------------7-----7-7-7--------------------------------|
E|----------------------------------------------------------------------------|

Depois do solo
e|---------------------------------------------------------------------------|
B|---------------------------------------------------------------------------|
G|--5---4---5---7------------------------------------------------------------|
D|--x---x---x---x------------------------------------------------------------|
A|--3---2---3---5------------------------------------------------------------|
E|---------------------------------------------------------------------------|

REFRAO

Final
e|---------------------------------------------------------------------------|
B|---------------------------------------------------------------------------|
G|---------------------------------------------------------------------------|
D|--5--5--5--5------5-/-4--5--7----------------------------------------------|
A|--3--3--3--3------3-/-2--3--5----------------------------------------------|
E|---------------------------------------------------------------------------|

LETRA DA MUSICA

Everything that could of went wrong, went wrong this year
Nothing quite recently has made me want to stand up and cheer
Everything you haven't said has finally come back to you.

Now is not the time, now is not the time
I know you never liked any gifts I gave to you.

This holiday is overrated
It turned out the way I expected
This holiday is one to forget
Another year, this time I'll regret that I spent too much time
And money on you.

Why do I only remember the bad times we had?
I guess everything we do does reflect
Everything you wish you said, has finally come back to you.
Now is not the time, no now is not the time
I know you never liked any gifts I gave to you.

This holiday is overrated
It turned out the way I expected
This holiday is one to forget
Another year, this time I'll regret that I spent too much time
And money on you.

I hope you spent it alone.
Composición de New Found Glory
Colaboración y revisión:
  • Cauê Pimentel
19 vistas
    • ½ Tono
    • A
    • Bb
    • B
    • C
    • Db
    • D
    • Eb
    • E
    • F
    • F#
    • G
    • Ab
  • Agregar a la lista

    0 comentarios

    Ver todos los comentarios

    ¿Lograste tocar?

    0 Tocaron 0 Aún no

    ¡Graba un video tocando Ex-Miss y envíanoslo!

    00:00 / 00:00
    Outros vídeos desta música
    Repetir Calidad Automático
    Outros vídeos desta música
    00:00 / 00:00
    Automático
    OK