Cifra Club

Goonies R Good Enough

New Found Glory

Tab de bajo: Principal
Tabbed By : Biehayn
e-mail: *

Tuning: Standard

Intro: 4x
G|---------------------------------------------------------------------------|
D|---------------------------------------------------------------------------|
A|4-4-4-4-4-4-4-1------------------------------------------------------------|
E|---------------------------------------------------------------------------|

Verse 1: 2x
G|---------------------------------------------------------------------------|
D|---------------------------------------------------------------------------|
A|--------------2-4-4-4-4-4-4-4-2--------------------------------------------|
E|0-0-0-0-0-0-0--------------------------------------------------------------|

Prechorus: 1x
G|---------------------------------------------------------------------------|
D|---------------------------------------------------------------------------|
A|0-0-0-0-2-2-2-2-----------------0-0-0-0-2-2-2-2----------------------------|
E|----------------0-0-0-0-2-2-2-2--------------------------------------------|

Chorus: 2x
G|---------------------------------------------------------------------------|
D|---------------------------------------------------------------------------|
A|--------------------------------2-2-2-2-2-2-2-2----------------------------|
E|0-0-0-0-0-0-0-0-4-4-4-4-5-5-5-5-----------------4-4-4-4-5-5-5-5------------|

Intro: 2x
G|---------------------------------------------------------------------------|
D|---------------------------------------------------------------------------|
A|4-4-4-4-4-4-4-1------------------------------------------------------------|
E|---------------------------------------------------------------------------|

Verse: 2x
G|---------------------------------------------------------------------------|
D|---------------------------------------------------------------------------|
A|--------------2-4-4-4-4-4-4-4-2--------------------------------------------|
E|0-0-0-0-0-0-0--------------------------------------------------------------|

Prechorus: 1x
G|---------------------------------------------------------------------------|
D|---------------------------------------------------------------------------|
A|0-0-0-0-2-2-2-2-----------------0-0-0-0-2-2-2-2----------------------------|
E|----------------0-0-0-0-2-2-2-2--------------------------------------------|

Chorus:
G|---------------------------------------------------------------------------|
D|---------------------------------------------------------------------------|
A|--------------------------------2-2-2-2-2-2-2-2----------------------------|
E|0-0-0-0-0-0-0-0-4-4-4-4-5-5-5-5-----------------4-4-4-4-5-5-5-5------------|

Intro: 7x (8th is cut short)
G|---------------------------------------------------------------------------|
D|---------------------------------------------------------------------------|
A|4-4-4-4-4-4-4-1------------------------------------------------------------|
E|---------------------------------------------------------------------------|

Prechorus: 1x
G|---------------------------------------------------------------------------|
D|---------------------------------------------------------------------------|
A|0-0-0-0-2-2-2-2-----------------0-0-0-0-2-2-2-2----------------------------|
E|----------------0-0-0-0-2-2-2-2--------------------------------------------|

Chorus: 2x
G|---------------------------------------------------------------------------|
D|---------------------------------------------------------------------------|
A|--------------------------------2-2-2-2-2-2-2-2----------------------------|
E|0-0-0-0-0-0-0-0-4-4-4-4-5-5-5-5-----------------4-4-4-4-5-5-5-5------------|

Intro: 3x         Last Time:
G|----------------|----------------------------------------------------------|
D|----------------|----------------------------------------------------------|
A|4-4-4-4-4-4-4-1-|4-4-4-4-4-4-4-1-4-----------------------------------------|
E|----------------|------------------0---------------------------------------|

| /  slide up
| \  slide down
| h  hammer-on
| p  pull-off
| ~  vibrato
| +  harmonic
| x  Mute note
============================================================================
00:00 / 00:00
Otros videos de esta canción
Repetir
Otros videos de esta canción
Composición de From The Screens To Your Stereo
12 vistas

0 comentarios

Ver todos los comentarios

¿Lograste tocar?

0 Tocaron 0 Aún no

¡Graba un video tocando Goonies R Good Enough y envíanoslo!

00:00 / 00:00
OK