Cifra Club

Hold My Hand

New Found Glory

Tab de bajo: Principal
Album: Coming Home
Tabbed By: Dylan

Not Sure If It's 100% Correct

All Parts Of The Song

Intro

G|--------------------------------------------------------------------------|
D|--------------------------------------------------------------------------|
A|--------------------------------------------------------------------------|
E|77777777777777-00-44444444444444-00---------------------------------------|


Verse

G|--------------------------------------------------------------------------|
D|--------------------------------------------------------------------------|
A|--------------------------------------------------------------------------|
E|77777777777777-00-44444444444444-00---------------------------------------|

Pre-Chorus

G|--------------------------------------------------------------------------|
D|--------------------------------------------------------------------------|
A|--------------------------------------------------------------------------|
E|0-000-0-0-0-0--4-444--4-4-4-4--2-222--2-2-2-2--7-777--7-7-7-7-7-----------|


Chorus

G|--------------------------------------------------------------------------|
D|--------------------------------------------------------------------------|
A|7-777777777777--4-4444444444444--2-222222222222--0-00022-0-00022----------|
E|--------------------------------------------------------------------------|

Verse
G|--------------------------------------------------------------------------|
D|--------------------------------------------------------------------------|
A|--------------------------------------------------------------------------|
E|77777777777777-00-44444444444444-00---------------------------------------|
00:00 / 00:00
Otros videos de esta canción
Repetir
Otros videos de esta canción
Composición de New Found Glory
36 vistas

0 comentarios

Ver todos los comentarios

¿Lograste tocar?

0 Tocaron 0 Aún no

¡Graba un video tocando Hold My Hand y envíanoslo!

00:00 / 00:00
OK