Cifra Club

It´s Been a Summer

New Found Glory

Tab de bajo: Principal
It's Been A Summer
Sticks and Stones (2003)
Bass Guitar
Standard Tunning (E A D G)


Intro  (0:10)
G-------------|
D-------------|
A-------------|
D-5555-4-2-4--|

(0:11)
G----------------------------------------------|
D----------------------------------------------|  X2
A----------55555555-0h222-4-0000-2-------------|
D-00000000-------------------------5555-4-2-4--|

Verse  (0:23)
G---------------------|
D---------------------|  X4
A---------------------|
D-00000000-555555555--|

Pre-Chorus  (0:46)
G--------------------|
D--------------------|
A--------------------|
D-22222222-55555555--|

Chorus  (0:53)
G-------------------|
D-------------------|  X8
A-------------------|
D-00--22--55555555--|

Post-Chorus  (1:17)
G----------------------------------------------|
D----------------------------------------------|  X2
A----------55555555-0h222-4-0000-2-------------|
D-00000000-------------------------5555-4-2-4--|

Verse  (1:29)
G---------------------|
D---------------------|  X4
A---------------------|
D-00000000-555555555--|

Pre-Chorus  (1:52)
G--------------------|
D--------------------|
A--------------------|
D-22222222-55555555--|

Chorus  (1:59)
G-------------------|
D-------------------|  X8
A-------------------|
D-00--22--55555555--|

Bridge  (2:23)
G----------------------------------|
D----------------------------------|
A----------------------------------|
D-0-0-0-0-2-2-2-2-5-5-5-5-5-5-5-5--|

REST  (2:46)

Chorus  (2:53)
G-------------------|
D-------------------|  X8
A-------------------|
D-00--22--55555555--|

(3:18)
G----------------------------------------------|
D----------------------------------------------|  X2
A----------55555555-0h222-4-0000-2-------------|
D-00000000-------------------------5555-4-2-4--|

Hope you all like it...
 bizzypunk
Composición de New Found Glory
9 vistas

0 comentarios

Ver todos los comentarios

¿Lograste tocar?

0 Tocaron 0 Aún no

¡Graba un video tocando It´s Been a Summer y envíanoslo!

00:00 / 00:00
Outros vídeos desta música
Repetir Calidad Automático
Outros vídeos desta música
00:00 / 00:00
Automático
OK