Cifra Club

It's Not Your Fault

New Found Glory

Tab de bajo: Principal
this is the first single from coming home!!! not tabbed yet so i thought i would!!!
yes i know the bass doesnt play the piano, but i put it in, just for the fun of it!!! 
it is the same as the guitar tab)
but the bass line for the actual song is very simple and is basically the route chords 
the guitar!!!
ive added some strokes (if using pick) for the chorus as it just sounds like thats the 
its played in the song, if you listen carefully!!!

d = downstroke
u = upstroke
f = fast

Piano (right hand)
|--9---------------9--------------9-------------|
|----11-9-11-9-7-----11-9-11-9-7----11-9-11-9-7-|
|-----------------------------------------------|
|-----------------------------------------------|

Pianno (left hand)
|----------------------------------|
|----------------------------------|
|----------------------------------|
|-55555555101010101010101022222222-|

Intro
|-------------------------------------------------------------|
|-------------------------------------------------------------|
|-----------------5555555555555555----------------55-55-55-55-|
|-5555555555555555----------------2222222200000000------------|

Verse
|--------------------------------------->
|--------------------------------------->
|-------5(x16)------5(x16)-------------->
|-5(x16)------5(x16)------2(x16)-0(x16)->



Bridge pt.2





Bridge pt.3
Composición de New Found Glory
22 vistas

0 comentarios

Ver todos los comentarios

¿Lograste tocar?

0 Tocaron 0 Aún no

¡Graba un video tocando It's Not Your Fault y envíanoslo!

00:00 / 00:00
Outros vídeos desta música
Repetir Calidad Automático
Outros vídeos desta música
00:00 / 00:00
Automático
OK