Cifra Club

My Heart Will Go On

New Found Glory

Cifrado: Principal (guitarra y guitarra eléctrica)
tono: E
Intro:
GUITARRA 1
e|-------------------------------------------------------
B|-------------------------------------------------------
G|-------------------------------------------------------
D|-2*----------------------------------------------------
A|-2*----------------------------------------------------
E|-0*----------------------------------------------------

GUITARRA 2
e|------------------------------------------------------
B|------------------------------------------------------
G|------------------------------------------------------
D|----------------------9-------------------------------
A|-7/9-9/11-11-11/9-7-9---11-9-7-4-2---7/9-9/11-11-11/9- 
E|------------------------------------------------------

e|-------------------------------------------
B|-------------------------------------------
G|-------------------------------------------
D|-----9-7-9-11-9----------------------------
A|-7/9---------------------------------------
E|-------------------------------------------

E               B         A          E    B
Every night in my dreams I see you, I feel you,
E               B         A
That is how I know you go on
E               B         A          E    B
Far across the distance And spaces between us
E               B         A   
You have come to show you go on
E      B     A      C# B
Near, far, wherever you are
E                  B               A  C# B
I believe that the heart does go on
E      B     A      C# B
Once more you open the door
E                  B
And you're here in my heart
    A                C#  B            
And my heart will go on and on

Love can touch us one time
And last for a lifetime
And never let go till we're one
Love was when I loved you
One true time I hold to 
In my life we'll always go on

Near, far, wherever you are
I believe that the heart does go on
Once more you open the door
And you're here in my heart
And my heart will go on and on

Uma pequena passagem:
e|---------------------------------------------
B|---------------------------------------------
G|---------------------------------------------
D|-------6-7--------4-6----(2)(2)(2)(2)*-------
A|-------------------------(2)(2)(2)(2)*-------
E|-(9)(9)----(7)(7)--------(0)(0)(0)(0)*-------

Solo: (igual ao da intro, porém mais rápido)
e|---------------------------------------------------------|
B|---------------------------------------------------------|
G|---------------------------------------------------------|
D|-------------------------------9---6---------------------|
A|---7--9--9h11---11--11p9--7--9--------9--7---------------|
E|----------------------------------------------9--7-------|

e|---------------------------------------------------------|
B|---------------------------------------------------------|
G|-----------------------------------------6--6---4--------|
D|-------------------------------9---6--9------------------|
A|---7--9--9h11---11--11p9--7--9---------------------------|
E|---------------------------------------------------------|

You're here, there's nothing I fear,
And I know that my heart will go on
We'll stay forever this way
You are safe in my heart
And my heart will go on and on

e|---------------------------------------------------------|
B|---------------------------------------------------------|
G|---------------------------------------------------------|
D|-------------------------------9---6-----------------2---|
A|---7--9--9h11---11--11p9--7--9---------9--7-----------2--|
E|----------------------------------------------9--7-/-0---|
Composición de James Horner
Colaboración y revisión:
  • Otávio DP
  • Victor Sousa
  • Waner Ferreira
125 vistas
    • ½ Tono
    • A
    • Bb
    • B
    • C
    • Db
    • D
    • Eb
    • E
    • F
    • F#
    • G
    • Ab
  • Agregar a la lista

    0 comentarios

    Ver todos los comentarios

    ¿Lograste tocar?

    0 Tocaron 0 Aún no

    ¡Graba un video tocando My Heart Will Go On y envíanoslo!

    00:00 / 00:00
    Outros vídeos desta música
    Repetir Calidad Automático
    Outros vídeos desta música
    00:00 / 00:00
    Automático
    OK