Cifra Club

Sincerely Me

New Found Glory

Tab de bajo: Principal
Tabbed by:Carl Kissack (*)
BASS TAB
Normal tuning (E,A,D,G)

          verse
G|---------------------------4-----|
D|------4-5----4-5-----4-4-5---5---|
A|---------0-0----3-3-3------------|  x7
E|---3-3---------------------------|

G|--------------------------------|
D|------4-5----4-5----------------|
A|---------0-0----3-3-3-3-3-3-3-3-|  x1
E|---3-3--------------------------|

          chorus

G|------------------------|
D|------------------------|
A|--------0-0--3333-3333--| x4
E|---3-3------------------|

    right after chrous
G|------------------------|
D|------------------------|
A|-----------------333----| x4
E|---3333-2222-000--------|

          verse
G|---------------------------4-----|
D|------4-5----4-5-----4-4-5---5---|
A|---------0-0----3-3-3------------|  x7
E|---3-3---------------------------|

G|--------------------------------|
D|------4-5----4-5----------------|
A|---------0-0----3-3-3-3-3-3-3-3-|  x1
E|---3-3--------------------------|

        chorus
G|------------------------|
D|------------------------|
A|--------0-0--3333-3333--| x8
E|---3-3------------------|

    right after chrous
G|------------------------|
D|------------------------|
A|-----------------333----| x4
E|---3333-2222-000--------|       

       bridge
G|------------------------------------------------------------|
D|------------------------------------------------------------|
A|--------------00000000000-33333333333-----------------------|
E|--33333333333-------------------------3313--3313--3313-3313-|

           chorus
G|---------------------------4-----|
D|------4-5----4-5-----4-4-5---5---|
A|---------0-0----3-3-3------------|  x1
E|---3-3---------------------------|

G|--------------------------------|
D|------4-5----4-5----------------|
A|---------0-0----3-3-3-3-3-3-3-3-|  x1
E|---3-3--------------------------|

G|---------------------------4-----|
D|------4-5----4-5-----4-4-5---5---|
A|---------0-0----3-3-3------------|  x1
E|---3-3---------------------------|

G|--------------------------------|
D|------4-5----4-5----------------|
A|---------0-0----3-3-3-3-3-3-3-3-|  x1
E|---3-3--------------------------|

G|------------------------|
D|------------------------|
A|--------0-0--3333-3333--| x4
E|---3-3------------------|

G|--------------------------|
D|--------------------------|
A|--------0000--33333333----| x4
E|---3333-------------------|

    end on
E|--3------|
Composición de New Found Glory
12 vistas

0 comentarios

Ver todos los comentarios

¿Lograste tocar?

0 Tocaron 0 Aún no

¡Graba un video tocando Sincerely Me y envíanoslo!

00:00 / 00:00
Outros vídeos desta música
Repetir Calidad Automático
Outros vídeos desta música
00:00 / 00:00
Automático
OK