Cifra Club

Singled Out

New Found Glory

Cifrado: Versão 2 (guitarra y guitarra eléctrica)
tono: C
Intro 
gtr 1
E|---------------------------------------------------------------|
B|---------------------------------------------------------------|
G|--5--3----3--5--3--5--7--5--3---3--5--3--0--5----7------5--7---|
D|-----------------------------------------------------3---------|
A|---------------------------------------------------------------|
E|---------------------------------------------------------------|


gtr 1
G - A# - C - D# - C

Riff gtr 2
E|---------------------------------------------------------------------|
B|---------------------------------------------------------------------|
G|-10-7-7-7--5--3-3-3---10-12--10--7--7--7---10-7-7-7--5--3-3-3--5--3--|
D|-x--x-x-x--x--x-x-x---x---x--x---x--x--x---x--x-x-x--x--x-x-x--x--x--|
A|-8--5-5-5--3--1-1-1---8--10--8---5--5--5---8--5-5-5--3--1-1-1--3--1--|
E|---------------------------------------------------------------------|


Verso

G - A# - C - D# - C (Abafado)

Refrão
A# - D# - G - F
Composición de New Found Glory
Colaboración y revisión:
  • Rafael Araújo
    • ½ Tono
    • A
    • Bb
    • B
    • C
    • Db
    • D
    • Eb
    • E
    • F
    • F#
    • G
    • Ab
  • Agregar a la lista

    0 comentarios

    Ver todos los comentarios

    ¿Lograste tocar?

    0 Tocaron 0 Aún no

    ¡Graba un video tocando Singled Out y envíanoslo!

    00:00 / 00:00
    Outros vídeos desta música
    Repetir Calidad Automático
    Outros vídeos desta música
    00:00 / 00:00
    Automático
    OK