Cifra Club

Singled Out

New Found Glory

Tab de bajo: Principal
Track - 10
  h - hammer on . ~ - ring out . x - mute . * - certain count .
intro
G)------------------------------------------|--------
D)------------------------------------------|--------
A)------------1-1-111--3-3-333--6-6-65-5-5--|--------
D)-5-5-555----------------------------------|--1~----

verses
G)--------------------------------------------|-------------------------
D)--------------------------------------------|-------------------------
A)------------1-1-111--3-3-333--6-6-5--3h5-5--|--3--3-3-3--3-3-3--------
D)-5-5-555------------------------------------|--------------------1~---

chorus
G)---------------------------|----------------
D)---------------------------|----------------
A)-1*----6*------------------|----------------
D)---------------5*----1*----|-x-x-x-1~-------

break down
G)-----------------------------------------------------
D)-----------------------------------------------------
A)-----------------------------------------------------
D)-1-1-x-x-x-1--1-1-x-x-x-1--1-1-x-x-x-3-3-3-3-3h5-5---
Composición de New Found Glory
13 vistas

0 comentarios

Ver todos los comentarios

¿Lograste tocar?

0 Tocaron 0 Aún no

¡Graba un video tocando Singled Out y envíanoslo!

00:00 / 00:00
Outros vídeos desta música
Repetir Calidad Automático
Outros vídeos desta música
00:00 / 00:00
Automático
OK