Cifra Club

Rosa de Hiroshima

Ney Matogrosso

Cifrado: Principal (guitarra y guitarra eléctrica)
Já pensou em usar uma coleção de roupas do Cifra Club? Responda as perguntas abaixo e nos ajude nessa missão! →
tono: G
Intro:
     D
E|-----------0--0/2------------------------
B|--------3----------3---------------------
G|-----2----------------2------------------
D|--0----------------------0---------------
A|-----------------------------------------
E|-----------------------------------------

     G             Gm/Bb
E|------------3------------3---------------
B|---------3------------3------------------
G|------0------------0---------------------
D|-----------------------------------------
A|----------------1------------------------
E|---3-------------------------------------

 Repete intro 4 vezes.

    A7
E|--------------0--------------------------
B|-----------2-----2-----------------------
G|--------0-----------0--------------------
D|-----2-----------------2-----------------
A|--0--------------------------------------
E|-----------------------------------------

    G
E|--------------3--------------------------
B|-----------3-----3-----------------------
G|--------0-----------0--------------------
D|-----0-----------------0-----------------
A|-----------------------------------------
E|--3--------------------------------------

     D
E|-----------0--0/2------------------------
B|--------3----------3---------------------
G|-----2----------------2------------------
D|--0----------------------0---------------
A|-----------------------------------------
E|-----------------------------------------

     G             Gm/Bb
E|------------3------------3---------------
B|---------3------------3------------------
G|------0------------0---------------------
D|-----------------------------------------
A|-----------------------------------------
E|---3------------1------------------------

        A7
E|--------------0--------------------------
B|-----------2-----2-----------------------
G|--------0-----------0--------------------
D|-----2-----------------2-----------------
A|--0--------------------------------------
E|-----------------------------------------

    G
E|--------------3--------------------------
B|-----------3-----3-----------------------
G|--------0-----------0--------------------
D|-----0-----------------0-----------------
A|-----------------------------------------
E|--3--------------------------------------

     D
E|-----------0--0/2------------------------
B|--------3----------3---------------------
G|-----2----------------2------------------
D|--0--------------------------------------
A|-----------------------------------------
E|-----------------------------------------

     D4
E|--2--3--------3--2-----------------------
B|--------3-----------3--------------------
G|-----------2-----------2-----------------
D|-----------------------------------------
A|-----------------------------------------
E|-----------------------------------------

     D
E|-----------0--0/2------------------------
B|--------3----------3---------------------
G|-----2----------------2------------------
D|--0----------------------0---------------
A|-----------------------------------------
E|-----------------------------------------

    Cadd9
E|--------------0--------------------------
B|-----------3-----3-----------------------
G|--------0-----------0--------------------
D|-----2-----------------------------------
A|--3--------------------3-----------------
E|-----------------------------------------

    G6/B
E|--------------0--------------------------
B|-----------2-----2-----------------------
G|--------0-----------0--------------------
D|-----0-----------------------------------
A|--2--------------------2-----------------
E|-----------------------------------------

    Gm6/Bb
E|--------------0--------------------------
B|-----------2-----2-----------------------
G|--------0-----------0--------------------
D|-----0-----------------------------------
A|--1--------------------1-----------------
E|-----------------------------------------

    A7
E|--------------0--------------------------
B|-----------2-----2-----------------------
G|--------0-----------0--------------------
D|-----2-----------------2-----------------
A|--0--------------------------------------
E|-----------------------------------------

    G
E|--------------3--------------------------
B|-----------3-----3-----------------------
G|--------0-----------0--------------------
D|-----0-----------------0-----------------
A|-----------------------------------------
E|--3--------------------------------------

     D
E|-----------0--0/2------------------------
B|--------3----------3---------------------
G|-----2----------------2------------------
D|--0----------------------0---------------
A|-----------------------------------------
E|-----------------------------------------

     G             Gm/Bb
E|------------3------------3---------------
B|---------3------------3------------------
G|------0------------0---------------------
D|-----------------------------------------
A|-----------------------------------------
E|---3------------1------------------------

    A7
E|--------------0--------------------------
B|-----------2-----2-----------------------
G|--------0-----------0--------------------
D|-----2-----------------2-----------------
A|--0--------------------------------------
E|-----------------------------------------

    G
E|--------------3--------------------------
B|-----------3-----3-----------------------
G|--------0-----------0--------------------
D|-----0-----------------0-----------------
A|-----------------------------------------
E|--3--------------------------------------

     D
E|-----------0--0/2------------------------
B|--------3----------3---------------------
G|-----2----------------2------------------
D|--0----------------------0---------------
A|-----------------------------------------
E|-----------------------------------------

    G/D           Gm/Bb
E|-----------1----------------2------------
B|--------0----------------2---------------
G|-----0----------------0------------------
D|--0--------------------------------------
A|----------------1------------------------
E|-----------------------------------------

        A7
E|--------------0--------------------------
B|-----------2-----2-----------------------
G|--------0-----------0--------------------
D|-----2-----------------2-----------------
A|--0--------------------------------------
E|-----------------------------------------

    G
E|--------------3--------------------------
B|-----------3-----3-----------------------
G|--------0-----------0--------------------
D|-----0-----------------0-----------------
A|-----------------------------------------
E|--3--------------------------------------

     D
E|-----------0--0/2------------------------
B|--------3----------3---------------------
G|-----2----------------2------------------
D|--0--------------------------------------
A|-----------------------------------------
E|-----------------------------------------

     D4
E|--2--3--------3--2-----------------------
B|--------3-----------3--------------------
G|-----------2-----------2-----------------
D|-----------------------------------------
A|-----------------------------------------
E|-----------------------------------------

     D
E|-----------0--0/2------------------------
B|--------3----------3---------------------
G|-----2----------------2------------------
D|--0----------------------0---------------
A|-----------------------------------------
E|-----------------------------------------

    Cadd9
E|--------------0--------------------------
B|-----------3-----3-----------------------
G|--------0-----------0--------------------
D|-----2-----------------------------------
A|--3--------------------3-----------------
E|-----------------------------------------

    G6/B
E|--------------0--------------------------
B|-----------2-----2-----------------------
G|--------0-----------0--------------------
D|-----0-----------------------------------
A|--2--------------------2-----------------
E|-----------------------------------------

    Gm6/Bb
E|--------------0--------------------------
B|-----------2-----2-----------------------
G|--------0-----------0--------------------
D|-----0-----------------------------------
A|--1--------------------1-----------------
E|-----------------------------------------

    A7
E|--------------0--------------------------
B|-----------2-----2-----------------------
G|--------0-----------0--------------------
D|-----2-----------------2-----------------
A|--0--------------------------------------
E|-----------------------------------------

    G
E|--------------3--------------------------
B|-----------3-----3-----------------------
G|--------0-----------0--------------------
D|-----0-----------------0-----------------
A|-----------------------------------------
E|--3--------------------------------------

     D
E|-----------0--0/2------------------------
B|--------3----------3---------------------
G|-----2----------------2------------------
D|--0----------------------0---------------
A|-----------------------------------------
E|-----------------------------------------

     G             Gm/Bb
E|------------3------------3---------------
B|---------3------------3------------------
G|------0------------0---------------------
D|-----------------------------------------
A|-----------------------------------------
E|---3------------1------------------------

    A7
E|--------------0--------------------------
B|-----------2-----2-----------------------
G|--------0-----------0--------------------
D|-----2-----------------2-----------------
A|--0--------------------------------------
E|-----------------------------------------

    G
E|--------------3--------------------------
B|-----------3-----3-----------------------
G|--------0-----------0--------------------
D|-----0-----------------0-----------------
A|-----------------------------------------
E|--3--------------------------------------

     D
E|-----------0--0/2------------------------
B|--------3----------3---------------------
G|-----2----------------2------------------
D|--0----------------------0---------------
A|-----------------------------------------
E|-----------------------------------------

     G             Gm/Bb
E|------------3------------3---------------
B|---------3------------3------------------
G|------0------------0---------------------
D|-----------------------------------------
A|-----------------------------------------
E|---3------------1------------------------

     D
E|-----------0--0/2------------------------
B|--------3--------------------------------
G|-----2-----------------------------------
D|--0--------------------------------------
A|-----------------------------------------
E|-----------------------------------------

  Intro: D G Gm/Bb

  A7            G
  Pensem nas crianças
             D       G  Gm/Bb
  Mudas telepáticas
  A7           G
  Pensem nas meninas
           D     D4
  Cegas inexatas
  D            Cadd9
  Pensem nas mulheres
             G6/B  Gm6/Bb
  Rotas alteradas
  A7            G
  Pensem nas feridas
             D       G  Gm/Bb
  Como rosas cálidas
  A7                G
  Mas, oh, não se esqueçam
              D   G/D  Gm/Bb
  Da rosa da rosa
  A7             G
  Da rosa de Hiroshima
                D    D4
  A rosa hereditária
  D         Cadd9
  A rosa radioativa
              G6/B   Gm6/Bb
  Estúpida e inválida
  A7           G
  A rosa com cirrose
                D     G  Gm/Bb
  A anti-rosa atômica
  A7             G
  Sem cor sem perfume
                D   G  Gm/Bb  D
  Sem rosa sem nada
Composición de Gerson Conrad / Vinícius de Moraes
Colaboración y revisión:
  • Marcelo Nunes
  • Amanda
  • Cleber Barta
549 vistas
    • ½ Tono
    • A
    • Bb
    • B
    • C
    • Db
    • D
    • Eb
    • E
    • F
    • F#
    • G
    • Ab
  • Agregar a la lista

    0 comentarios

    Ver todos los comentarios

    ¿Lograste tocar?

    5 Tocaron 2 Aún no

    ¡Graba un video tocando Rosa de Hiroshima y envíanoslo!

    00:00 / 00:00
    Outros vídeos desta música
    Repetir Calidad Automático
    Outros vídeos desta música
    00:00 / 00:00
    Automático
    OK