Cifra Club

Flicker

Niall Horan

Cifrado: Principal (guitarra y guitarra eléctrica)
Selo Cifra Club: esta cifra foi revisada para atender aos critérios oficiais da nossa Equipe de Qualidade.
tono: Cm (con acordes en la forma de Am) Capotraste en 3ª casa
[Intro] Am7  G/B  C9  F 
        Am7  G/B  C9  F

         C
When you feel your love's been taken
         Em 
When you know there's something missing
       Am          G6             F7M
In the dark, we're barely hangin' on 
       C
Then you rest your head upon my chest
        Em 
And you feel like there ain't nothing left
    Am          G6             F7M   C11/F 
I'm afraid that what we had is gone

                    F 
Then I think of the start
              C 
And it echoes a spark
  Am           G6      C      F7M   C11/F  
I remember the magic electricity
                F  
Then I look in my heart
                 C 
There's a light in the dark
        Am         G6            C             F7M  C11/F
Still a flicker of hope that you first gave to me
             Dm 
That I wanna keep

[Intro] 
              Am7  G/B  C9 
Please don't leave
F            Am7   G/B  C9  F               
Please don't leave

          C 
When you lay there and you're sleeping
         Em 
Hear the patterns of your breathing
      Am                      G6            F7M
And I tell you things you've never heard before
       C 
Asking questions to the ceiling
      Em 
Never knowing what you're thinking
    Am          G6             F7M  C11/F 
I'm afraid that what we had is gone
 
                    F 
Then I think of the start
              C 
And it echoes a spark
  Am           G6      C      F7M   C11/F  
I remember the magic electricity
                F  
Then I look in my heart
                 C 
There's a light in the dark
        Am         G6            C             F7M  C11/F
Still a flicker of hope that you first gave to me
             Dm 
That I wanna keep 
              Am7  G/B  C9  F
Please don't leave
              Am7  G/B  C9  F               
Please don't leave

    Am7  G/B  C      F   
And I  want this to pass
    Am7  G/B  C    F 
And I  hope this won't last
   Dm   
Last too long

                    F 
Then I think of the start
              C 
And it echoes a spark
  Am           G6      C      F7M   C11/F  
I remember the magic electricity
                F  
Then I look in my heart
                 C 
There's a light in the dark
        Am         G6            C             F7M  C11/F
Still a flicker of hope that you first gave to me
             Dm 
That I wanna keep

              Am7  G/B  C9 
Please don't leave
F            Am7   G/B  C9  F               
Please don't leave

[Intro]

  Am7        G/B       C9                                          
E|----------------------------------------|
B|-1----1----3----3----5----5----5--------|
G|----0---------0---------0----------0----|
D|--------------------------------------0-|
A|-0------0--2------2--3------3--3--------|
E|----------------------------------------|
 F
E|----------------------------------------|
B|----------------------------------------|
G|-2----2----2----2----2----2----2----2---|
D|----3---------3---------3---------3-----|
A|----------------------------------------|
E|-1------1--1------1--1------1--1------1-|

  Am7        G/B       C9                   F                        
E|----------------------------------------|-----------------------|
B|-1----1----3----3----5----5----5--------|-----------------------|
G|----0---------0---------0----------0----|-2----2----2----2----2-|
D|--------------------------------------0-|----3---------3--------|
A|-0------0--2------2--3------3--3--------|-----------------------|
E|----------------------------------------|-1------1--1------1--1-|
Otros videos de esta canción
    31.062 exhibiciones
    • Simplificar cifrado
      • ½ Tono
      • Am
      • Bbm
      • Bm
      • Cm
      • C#m
      • Dm
      • Ebm
      • Em
      • Fm
      • F#m
      • Gm
      • G#m
    • Agregar a la lista

    Afinación de cifrado

    Afinador online

      OK