Cifra Club

Still

Niall Horan

Cifrado: Principal (guitarra y guitarra eléctrica)
Selo Cifra Club: esta cifra foi revisada para atender aos critérios oficiais da nossa Equipe de Qualidade.
tono: C (con acordes en la forma de A) Capotraste en 3ª casa
[Intro] 

E|--------------------------------|
B|--------------------------------|
G|--------------------------------|
D|---2---------2-----2--------2---|
A|--3-3---3---3-----3-3--3---3----|
E|-3-----3-3-3-----1----1-1-1-----|

[Primeira Parte]
    
E|------------------------------|
B|------------------------------|
G|------------------------------|
D|---2-2----2-2----2-2----2-2---| x4
A|--3------3------3------3------|
E|-3----3-3----3-1----1-1----1--|


My mind is complicated

Find it hard to rearrange it
                                
But I'll have to find a way somehow

Overreacting lately

Find it hard to say I'm sorry
                              
But I'll make it up to you somehow

   D C#m Bm A G7M
E|-------------------------------------------------|
B|-------------------------------------------------|
G|-9-7-5-4-2--2-2----2-2--9-7-5-4-2-2-2----2-2--2--|
D|-------------------------------------------------|
A|----------3-------3--------------3------3--------|
E|-8-7-5-3-1-----1-1----1-8-7-5-3-1----1-1----1-1--|

D  C#m  Bm    A    G7M
I just don't know why
D     C#m   Bm    A  G7M
Stars won't shine at night
  
[Refrão]

   C                                   F

E|---------------------------------------------------------------|
B|---------------------------------------------------------------|
G|-9--9-9---9--9-9---9--9-9---9--9-9---2-2-2--2--2-2--2-2-2--2--2-|
D|--10---10--10---10--10---10--10---10--3---3---3---3--3---3--3-3|
A|---------------------------------------------------------------|
E|-8-----8--8--------8-----8--8--------1----1-1-------1----1-1---|

   Bb                           F
E|----------------------------------------------|
B|----------------------------------------------|
G|-4-4-4--4-2-2--4-4-4--4-2-2--2-2-2--2-2-2--2--|
D|--5---5--5---5--5---5--5---5--3---3--3---3----|
A|----------------------------------------------|
E|-3----3-3------3----3-3------1----1-1------1--|

            C
Tell me you want it
                                          F
A thousand miles away from the day that we started
                                                  Bb
But I'm standing here with you, just trying to be honest
                                 F
If honesty means telling you the truth
                                C
Well, I'm still in love with you 

[Segunda Parte]

E|------------------------------|
B|------------------------------|
G|------------------------------|
D|---2-2----2-2----2-2----2-2---| x4
A|--3------3------3------3------|
E|-3----3-3----3-1----1-1----1--|

Did I miscalculate this?

Let's just go back to basics
                            
Forget about what's coming on

'Cause I hate to see us like this

Breaking up on nights just like this
                              
We should be shooting for them stars of gold

[Refrão]

   C                                   F

E|---------------------------------------------------------------|
B|---------------------------------------------------------------|
G|-9--9-9---9--9-9---9--9-9---9--9-9---2-2-2--2--2-2--2-2-2--2--2-|
D|--10---10--10---10--10---10--10---10--3---3---3---3--3---3--3-3|
A|---------------------------------------------------------------|
E|-8-----8--8--------8-----8--8--------1----1-1-------1----1-1---|

   Bb                           F
E|----------------------------------------------|
B|----------------------------------------------|
G|-4-4-4--4-2-2--4-4-4--4-2-2--2-2-2--2-2-2--2--|
D|--5---5--5---5--5---5--5---5--3---3--3---3----|
A|----------------------------------------------|
E|-3----3-3------3----3-3------1----1-1------1--|

               C
So tell me you want it
                                           F
A thousand miles away from the day that we started
                                                  Bb
But I'm standing here with you, just trying to be honest
                                 F
If honesty means telling you the truth
                         C
Then I guess we lost our focus
                                        F
And it's killing me that we could go to war like this
                                                  Bb
But I'm standing here with you, just trying to be honest
                                 F
If honesty means telling you the truth
                                C
Well, I'm still in love with you
 
E|----------------------------------------------------------|
B|----------------------------------------------------------|
G|---3-3----3-3----2-2----2-2----0-0----0-0----0-0----0-0---|
D|----------------------------------------------------------| x2
A|--5------5------0------0------3------3------3------3------|
E|-6----6-6----6-1----1-1----1-3----3-3----3-3----3-3----3--|
 
E|---------------------------------------------------------|
B|---------------------------------------------------------|
G|---3-3----3-3----2-2----2-2----0-0----0-0--4-4-4-4-4-4---|
D|--------------------------------------------5---5-5---5--|
A|--5------5------0------0------3------3-------------------|
E|-6----6-6----6-1----1-1----1-3----3-3----3-3-----3-------|

          
Oh,we'll be alright

Oh,it'll be alright

Oh,we'll be alright

Oh,it'll be alright

 
[Refrão]

               C
So tell me you want it
                                           F
A thousand miles away from the day that we started
                                                  Bb
But I'm standing here with you, just trying to be honest
                                 F
If honesty means telling you the truth
                         C
Then I guess we lost our focus
                                        F
And it's killing me that we could go to war like this
                                                  Bb
But I'm standing here with you, just trying to be honest
                                 F
If honesty means telling you the truth
                                C
Well, I'm still in love with you
Otros videos de esta canción
    9.467 exhibiciones
      • ½ Tono
      • A
      • Bb
      • B
      • C
      • Db
      • D
      • Eb
      • E
      • F
      • F#
      • G
      • Ab
    • Agregar a la lista

    Afinación de cifrado

    Afinador online

      OK