Cifra Club

Too Much To Ask

Niall Horan

Cifrado: Principal (guitarra y guitarra eléctrica)
tono: C
[Intro]  Am  G  C

 Am      G           C
Waiting here for someone
Am          G                  C
Only yesterday we were on the run
 Am                G                C
You smile back at me and your face lit up the sun
         Am      G           C
Now I'm waiting here for someone

    Dm   C     Dm               C
And oh, love, do you feel this rough? 
  Dm           C               G
Why's it only you I'm thinking of

 F          C
My shadows dancing
 Am          G
Without you for the first time
 F           C
My heart is hoping
 Am          G
You'll walk right in tonight
 F                             C
Tell me there are things that you regret
 Am                         G
Cause if I'm being honest I ain't over you yet
F            C
It's all I'm asking
Am              G      F  C
Is it too much to ask? 
Am              G      F  C  Am  G
Is it too much to ask?

 Am        G         C
Someone's moving outside
  Am            G                 C
The lights come on and down the drive
Am                   G                   C
I forget you're not here when I close my eyes
 Am            G          C
Do you still think of me sometimes?

     Dm  C     Dm            C
And, oh love, watch the sun coming up 
 Dm            C               G
Don't it feel fucked up we're not in love

 F          C
My shadows dancing
 Am          G
Without you for the first time
 F           C
My heart is hoping
 Am               G
You'll walk right in tonight
 F                             C
Tell me there are things that you regret
 Am                         G
Cause if I'm being honest I ain't over you yet
F            C
It's all I'm asking
Am              G
Is it too much to ask?

[Solo]  F  C  Am  G
        F  C  Am  G
        F  C  Am  G

E|------------------------------------------|
B|----------13-----13-15-15--12-13----------|
G|-14-14-12-----12--------------------------|
D|------------------------------------------|
A|------------------------------------------|
E|------------------------------------------|

E|------------------------------------------|
B|----------13----13-15-15/17-17-17p15/12---|
G|-14-14-12----12---------------------------|
D|------------------------------------------|
A|------------------------------------------|
E|------------------------------------------|

E|------------------------------------------|
B|-12-12h13p12------------------------------|
G|-------------14-12-14-14-12---------------|
D|----------------------------14--14-14-14/-|
A|------------------------------------------|
E|------------------------------------------|

E|------------------------------------------|
B|------------------------------------------|
G|------------------------------------------|
D|-14-14-14-12--9-10------------------------|
A|------------------------------------------|
E|------------------------------------------|

 F          C
My shadows dancing
 Am          G
Without you for the first time
 F           C
My heart is hoping
 Am               G
You'll walk right in tonight
 F                             C
Tell me there are things that you regret
 Am                         G
Cause if I'm being honest I ain't over you yet
 F          C
My shadows dancing
 Am          G
Without you for the first time
 F           C
My heart is hoping
 Am               G
You'll walk right in tonight
 F                             C
Tell me there are things that you regret
 Am                         G
Cause if I'm being honest I ain't over you yet

F            C
It's all I'm asking
Am              G
Is it too much to ask?

F            C
It's all I'm asking
Am              G
Is it too much to ask?
F            C
It's all I'm asking
Am              G
Is it too much to ask?
00:00 / 00:00
Otros videos de esta canción
Repetir
Otros videos de esta canción
Composición de Jamie Scott / Niall Horan
Colaboración y revisión:
  • Marcos Paulo
  • ・。☆Lysa 。・
6.707 vistas
    • ½ Tono
    • A
    • Bb
    • B
    • C
    • Db
    • D
    • Eb
    • E
    • F
    • F#
    • G
    • Ab
  • Agregar a la lista

    0 comentarios

    Ver todos los comentarios

    ¿Lograste tocar?

    16 Tocaron 2 Aún no

    ¡Graba un video tocando Too Much To Ask y envíanoslo!

    00:00 / 00:00
    OK