Cifra Club

Chains

Nick Jonas

Cifrado: Principal (guitarra y guitarra eléctrica)
tono: Eb (con acordes en la forma de C) Capotraste en 3ª casa
[Intro] Am

With her wine-stained lips, yeah she's nothing but trouble

Cold to the touch, but she's warm as the devil

Gave her my heart but she wanted my soul

She tasted a break and I can? t get more

              F7M
You got me in chains
              Am
You got me in chains for your love
                 G6
But I wouldn't change
                Dm
No, I wouldn't change this love 

Tried to break the chains
                            
But the chains only break me

E|----3h5--3-5-0----0----0----------------------|
B|----------------3---3-----1-3--1h0------------|
G|------------------------------------2---------|
D|----------------------------------------------|
A|----------------------------------------------|
E|----------------------------------------------|

E|----3h5--3-5-0----0----0----------------------|
B|----------------3---3-----1h3-----------------|
G|-------------------------------2--------------|
D|----------------------------------------------|
A|----------------------------------------------|
E|----------------------------------------------|

E|----3h5--3-5-0----0----0----------------------|
B|----------------3---3-----1-3--1h0------------|
G|------------------------------------2---------|
D|----------------------------------------------|
A|----------------------------------------------|
E|----------------------------------------------|

Tried to break the chains
E|----3h5--3-5-0----0----0----------------------|
B|----------------3---3-------------------------|
G|----------------------------------------------|
D|----------------------------------------------|
A|----------------------------------------------|
E|----------------------------------------------|

But the chains only break me

  Am
Alone in the night 'til she knocks on my door

Wasted again but I can't say no (no)

Baby, tell me why, why you do, do me wrong?

Baby, tell me why, why you do, do me wrong?
 G6                                  Dm
Gave you my heart, but you took my soul

              F7M
You got me in chains
              Am
You got me in chains for your love
                 G6
But I wouldn't change
                  Dm
No, I wouldn't change this love 

Tried to break the chains
                             
But the chains only break me

E|----3h5--3-5-0----0----0----------------------|
B|----------------3---3-----1-3--1h0------------|
G|------------------------------------2---------|
D|----------------------------------------------|
A|----------------------------------------------|
E|----------------------------------------------|

E|----3h5--3-5-0----0----0----------------------|
B|----------------3---3-----1h3-----------------|
G|-------------------------------2--------------|
D|----------------------------------------------|
A|----------------------------------------------|
E|----------------------------------------------|

E|----3h5--3-5-0----0----0----------------------|
B|----------------3---3-----1-3--1h0------------|
G|------------------------------------2---------|
D|----------------------------------------------|
A|----------------------------------------------|
E|----------------------------------------------|

Tried to break the chains
E|----3h5--3-5-0----0----0----------------------|
B|----------------3---3-------------------------|
G|----------------------------------------------|
D|----------------------------------------------|
A|----------------------------------------------|
E|----------------------------------------------|
                             
But the chains only break me

E|----3h5--3-5-0----0----0----------------------|
B|----------------3---3-----1-3--1h0------------|
G|------------------------------------2---------|
D|----------------------------------------------|
A|----------------------------------------------|
E|----------------------------------------------|

E|----3h5--3-5-0----0----0----------------------|
B|----------------3---3-----1h3-----------------|
G|-------------------------------2--------------|
D|----------------------------------------------|
A|----------------------------------------------|
E|----------------------------------------------|

E|----3h5--3-5-0----0----0----------------------|
B|----------------3---3-----1-3--1h0------------|
G|------------------------------------2---------|
D|----------------------------------------------|
A|----------------------------------------------|
E|----------------------------------------------|

E|----3h5--3-5-0----0----0----------------------|
B|----------------3---3-------------------------|
G|----------------------------------------------|
D|----------------------------------------------|
A|----------------------------------------------|
E|----------------------------------------------|

Am
Baby, tell me why, why you do, do me wrong?

Baby, tell me why, why you do, do me wrong?
G6                                  Dm
Gave you my heart, but you took my soul

              F7M
You got me in chains
              Am
You got me in chains for your love
                 G6
But I wouldn't change
                  Dm
No, I wouldn't change this love 

Tried to break the chains

But the chains only break me
Compositor no encontrado.
Colaboración y revisión:
  • Gabriel Silva
  • David Mejia
  • Giovanna Vieira
531 vistas
    • ½ Tono
    • A
    • Bb
    • B
    • C
    • Db
    • D
    • Eb
    • E
    • F
    • F#
    • G
    • Ab
  • Agregar a la lista

    0 comentarios

    Ver todos los comentarios

    ¿Lograste tocar?

    1 Tocaron 1 Aún no

    ¡Graba un video tocando Chains y envíanoslo!

    00:00 / 00:00
    Otros videos de esta canción
    Repetir Calidad Automático
    Otros videos de esta canción
    00:00 / 00:00
    Automático
    OK