Enviar cifraEntrar

Savin' Me

Nickelback

Acordes: Principal
reproducciones 13.114
Tono: E Afinación: Eb Ab Db Gb Bb Eb
Intro: A E F#m C#m


E|-----------------------------------------|
B|-----------------------------------------|
G|-----------------------------------------|
D|---6-4--------6-4-6---6-4----------2-4-2-|
A|-0----------------------------4-4--------|
E|----------0-0-------2--------------------|


E|-----------------------------------------|
B|-----------------------------------------|
G|-----------------------------------------|
D|---6-4--------6-4-6---6-4----------2-4-2-|
A|-0----------------------------4-4--------|
E|----------0-0-------2--------------------|



A                    E
Prison gates won't open up for me
F#m                C#m
On these hands and knees I'm crawlin'
A          E            F#m
Oh, I reach for you
        A             E
Well I'm terrified of these four walls
      F#m             C#m
These iron bars can't hold my soul in
A           E    F#m
All I need is you    (Come please I'm callin')
     A        E       F#m
And oh I scream for you   (Hurry I'm fallin')

C#m          E         B          F#m
Show me what its like (to be the last one standing)
    C#m           E         B                  F#m
And teach me wrong from right (and I'll show you what i can be)
A             E          F#m                   C#m      E
Say it for me, say it to me, and I'll leave this life behind me
A             E            F#m
Say it if it's worth saving me

A                     E
Heaven's gates wont't open up for me
F#m                C#m
With these broken wings I'm fallin'
    A      E           F#m
And all I see is you
     A                 E
These city walls ain't got no love for me
F#m                     C#m
I'm on the ledge of the eighteenth story

     A         E       F#m
And oh I scream for you  (Come please I'm callin')

   A       E        F#m
And oh I need for you   (Hurry I'm fallin')

C#m          E         B          F#m
Show me what its like (to be the last one standing)
    C#m            E         B                  F#m
And teach me wrong from right (and I'll show you what i can be)
A             E           F#m                   C#m x x  E x x
Say it for me, say it to me, and I'll leave this life behind me
A             E            F#m
Say it if it's worth saving me



E|----------------------------------------------|
B|----------------------------------------------|
G|--11-10-----------11-10-----------11-10-------|
D|--------13-11-13--------13-11-13--------13-11-|
A|----------------------------------------------|
E|----------------------------------------------|


E|--------------------------------------|---------------------------------------|
B|--------------------------------------|---------------------------------------|
G|--------------------------------------|--11-10--------------------------------|
D|--13------------11/15----13--/13--11--|--------13-11-13----------11/15----13--|
A|------13-13-13------------------------|------------------13--13---------------|
E|--------------------------------------|---------------------------------------|


E|-------------------------------------------------|--14-13-11----11--14-13-11----11--14-13-11----|
B|-------------------------------------------------|-----------14--------------14--------------14-|
G|-------------10-10-10-10-11-11-11-11-13-13-13-13-|----------------------------------------------|
D|----13-13-13-------------------------------------|----------------------------------------------|
A|-------------------------------------------------|----------------------------------------------|
E|-------------------------------------------------|----------------------------------------------|


E|--11----------------/13--11--/11------|--11-13-13-13-13-14-14-14-16--14--16--/23--|
B|------11-11-11--14----------------14--|-------------------------------------------|
G|--------------------------------------|-------------------------------------------|
D|--------------------------------------|-------------------------------------------|
A|--------------------------------------|-------------------------------------------|
E|--------------------------------------|-------------------------------------------|


    A        E        F#m
And oh I need for you   (Come please I'm callin')
    A         E      F#m
And oh I scream for you   (Hurry I'm fallin')

C#m          E         B          F#m
Show me what its like (to be the last one standing)
    C#m            E         B                  F#m
And teach me wrong from right (and I'll show you what i can be)
A             E          F#m                   C#m      E
Say it for me, say it to me, and I'll leave this life behind me
A             E            F#m
Say it if it's worth saving me  (Hurry I'm fallin')
A             E           F#m                   C#m      E
Say it for me, say it to me, and I'll leave this life behind me
A             E            F#m
Say it if it's worth saving me
  • 1
  • 2
  • 3
  • 4
  • 5
  • 6
  • 7
  • 8
  • 9
  • 10
  • 11
  • 12

    0 comentarios

      mostrar mas comentarios

      ¿Conseguiste tocar?

      62tocaron1aún no

      ¡Grave un vídeo tocando Savin' Me y envie para nosotros!

      00:00 / 00:00
      outros vídeos desta música
      repetirqualidadeautomática
      • automática
      Outro vídeos desta música
        00:00 / 00:00
        automática
        • automática
        cerrarplay/pause subir/bajar velocidad
          acordes
          cerrar
          OK
          Feedback