Cifra Club

Nehmt Abschied Brüder

Nicole

Cifrado: Principal (guitarra y guitarra eléctrica)
Selo Cifra Club: esta cifra foi revisada para atender aos critérios oficiais da nossa Equipe de Qualidade.
tono: C
[Verse] 
   C   +       +                   +       +       +       +     Dm  +       +       +       +
E|---------------------------|-------------------------0-------|-------------------------0-------|
B|---------------------------|-1----------p0---1---------------|-3----------p1---3-----------3---|
G|-----0-------0--------0----|-----0---------------0-------0---|-----2---------------2-----------|
D|---------2------------0----|---------2---------------2-------|---------0---------------0-------|
A|-3-------------------------|-3---------------3---------------|-0---------------0---------------|
E|-----------------3---------|---------------------------------|---------------------------------|
                           
   C   +       +       +       +     F   +       +       +       +     C   +       +       +       +
E|-----------------0-------3-------| /5-----------------------5-------|\3----------p0---0---------------|
B|-1-----------1-------------------|---------------------------------|-------------------------1-------|
G|-----0---------------0-------0---|-----5-------5-------5-------5---|-----0---------------0-------0---|
D|---------2---------------2-------|---------3---------------3-------|---------2---------------2-------|
A|-3---------------3---------------|-0---------------0---------------|-3---------------3---------------|
E|---------------------------------|---------------------------------|---------------------------------|
                                  
   G   +       +       +       +     F        +               C        +       +
E|-------------------------0-------|------------------------|----------------------3/5----|
B|-3----------p1---3-----------3---|-1----------------------|-1--------------------0------|
G|-----0---------------0-----------|-2--------2---2----0----|-0--------0-------0----------|
D|---------0---------------0-------|------3------------0----|------2---------------0------|
A|---------------------------------|-3------------3---------|-3------------3--------------|
E|-3---------------3---------------|------------------------|-----------------------------|


[Chorus]
       +       +       +       +     Dm  +       +       +            C   +       +       +       +
E|-3----------p0---0---------------|-------------------------3/5----|-3----------p0---0-------3-------|
B|-------------------------1-------|-3----------p1---3-------0------|---------------------------------|
G|-----0---------------0-------0---|-----2---------------2----------|-----0---------------0-------0---|
D|---------2---------------2-------|---------0---------------0------|---------2---------------2-------|
A|-3---------------3---------------|-0---------------0--------------|-3---------------3---------------|
E|---------------------------------|--------------------------------|---------------------------------|
Der Himmel         wölbt sich        übers           Land,   A-       de,         Aufwieder-

   F   +       +       +     +      C   +       +       +       +     G   +       +       +       +
E|-5-----------------------5/8----|-3----------p0---0---------------|-------------------------0-------|
B|--------------------------------|-------------------------1-------|-3----------p1---3-----------3---|
G|-----5-------5-------5----------|-----0---------------0-------0---|-----0---------------0-----------|
D|---------3---------------3------|---------2---------------2-------|---------0---------------0-------|
A|-0---------------0--------------|-3---------------3---------------|---------------------------------|
E|--------------------------------|---------------------------------|-3---------------3---------------|
   sehn,                   Wir      ruhen           all in            Gottes          Hand,   lebt

   F        +             C a
E|------------------------|--------|
B|-1----------------------|-1------|
G|-2--------2---2----0----|-0------|
D|------3------------0----|-2------|
A|-3------------3---------|-3------|
E|------------------------|--------|
   wohl,    Aufwieder-      sehn!


[Lyrics]

Nehmt Abschied Brüder,
ungewiss ist alle wiederkehr
Die Zukunft liegt in Finsternis
Und macht das Herz uns schwer

Die Sonne sinkt, es steigt die Nacht
Vergangen ist der Tag
Die Welt schläft ein und leis erwacht
Der Nachtigallenschlag

So ist in jedem Anbeginn
Das Ende nicht mehr weit
Wir kommen her und gehen hin
Und mit uns geht die Zeit

Nehmt Abschied Brüder
Schließt den Kreis
Das Leben ist ein Spiel
Und wer es recht zu Spielen weiss
Gelangt ans große Ziel

************************************      
               
| a    Arpeggio (pick all strings in sequence, harp-like)
| p    Pull-off                           
| /    Slide up
| \    Slide down
                                          
Otros videos de esta canción
    4 exhibiciones
      • ½ Tono
      • A
      • Bb
      • B
      • C
      • Db
      • D
      • Eb
      • E
      • F
      • F#
      • G
      • Ab
    • Agregar a la lista

    Afinação da cifra

    Afinador online

      Ops (: Contenido disponible solo en portugués.
      OK