Cifra Club

Tuve que herirme

Nicole

Cifrado: Principal (guitarra y guitarra eléctrica)
Selo Cifra Club: esta cifra foi revisada para atender aos critérios oficiais da nossa Equipe de Qualidade.
tono: C
E|-----------------------------------------------------|
B|-----------------------------------------------------|
G|---------0-----------0-----------0-----------0-------|
D|------4-----------4-----------0-----------2----------|
A|---5--------5--3--------3--2--------2--3--------3----|
E|-----------------------------------------------------|


En la parte de "asi despacio mi dulce corazon muere", van unos acordes en
Sol y Do, muy leves, tocando solamente las siguientes notas:

E|---------------------------------|
B|---------------------------------|
G|----------------5---5/7---5------|
D|---5--5--5--5---3---3/5---3---0--|
A|---3--3--3--3--------------------|
E|---------------------------------|

En el coro, entra un teclado haciendo el mismo arpegio del principio.

Al final de la cancion, el arpegio del principio se complementa con una
segunda guitarra que toca unas notas en las primeras dos cuerdas, pero es
bastante dificil hacerlo con una sola guitarra, aunque sonaria asi:

E|---------0-----------0-----------0-----------0-------|
B|------------3-----------3-----------3-----------3----|
G|-----------------------------------------------------|
D|------4-----------4-----------0-----------2----------|
A|---5-----------3-----------2-----------3-------------|
E|-----------------------------------------------------|
Otros videos de esta canción
    35 exhibiciones
      • ½ Tono
      • A
      • Bb
      • B
      • C
      • Db
      • D
      • Eb
      • E
      • F
      • F#
      • G
      • Ab
    • Agregar a la lista

    Afinação da cifra

    Afinador online

      Ops (: Contenido disponible solo en portugués.
      OK