Cifra Club

Aprenda

Rem

Nightmare

Tab de bajo: Principal
G|-------|-------|--------|--------|--------|---------------|
D|-------|-------|--------|--------|--------|---------------|
A|-------|-------|--------|--------|--------|---------------|
E|-3--55-|-2--33-|33333333|55555555|22222222|-757-9~-10-----|

G|--------|--------|--------|--------|--------|-------------|
D|--------|--------|--------|--------|--------|-------------|
A|--------|--------|--------|--------|--------|-------------|
E|33333333|55555555|22222222|33333333|33333333|55555555-----|

G|--------|----------|-------|------|-------|-------|-------|
D|--------|--9-------|-------|------|-------|-------|-------|
A|--------|-9-9-7-5-7|-------|------|-------|-------|10-9---|
E|77777777|----------|-3~-55-|-2~-33|-3~-55-|-2~-33/|----10~|

G|--------|--------|--------|--------|--------|-------------|
D|--------|--------|--------|--------|--------|-------------|
A|--------|--------|--------|--------|--------|-------------|
E|33333333|55555555|22222222|33333333|33333333|55555555-----|

            (14)(14)(14)
G|--------|------------------|---------|--------|-----------|
D|--------|------------------|---------|--------|-----------|
A|--------|-/141414-/141414--|---------|--------|-----------|
E|77777777|----------------14|/33333333|33333333|22222222---|

G|--------|--------|--------|----------|----------|---------|
D|--------|--------|--------|----------|-9-7------|---------|
A|--------|77777777|--------|----------|9---9-7-99|---------|
E|77777777|--------|22222222|2-0-2-4-55|----------|33333333-|

G|--------|--------|---------|--------|--------|------------|
D|--------|--------|---------|--------|--------|------------|
A|--------|--------|-------45|6666----|8888----|----10101010|
E|55555555|55555555|-7777-6--|----0000|----2222|3333--------|

G|--------|--------|--------|---------|--------|------------|
D|--------|--------|--------|---------|--------|------------|
A|12121212|--------|--------|678-8-8--|-2-2-245|------------|
E|--------|3--3~---|-5--5~--|---8-8-8-|--2-2---|33333333----|

G|--------|--------|--------|--------|--------|-------------|
D|--------|--------|--------|--------|--------|-------------|
A|--------|--------|--------|--------|--------|-------------|
E|55555555|33333333|55555555|22222222|33333333|33333333-----|

G|--------|--------|--------|--------|--------|-------------|
D|--------|--------|-9------|--------|--------|-------------|
A|--------|--------|9-9-757-|--------|--------|-------------|
E|55555555|77777777|--------|33333333|55555555|22222222-----|

G|--------|--------|--------|--------|--------|-------------|
D|--------|--------|--------|--------|--------|-------------|
A|--------|--------|--------|--------|--------|-------------|
E|33333333|33333333|55555555|22222222|--------|33333333-----|

G|--------|--------|--------|--------|--------|-------------|
D|--------|--------|--------|--------|--------|-------------|
A|--------|--------|--------|--------|--------|-------------|
E|33333333|22222222|77777777|00000000|22222222|2-0-2-455----|

G|--------|--------|--------|--------|--------|-------------|
D|-97-----|--------|--------|--------|--------|-------------|
A|9--7-99-|--------|--------|--------|------45|6666----8888-|
E|--------|33333333|55555555|55555555|7777-6--|----0000-----|

G|--------|-----------------|--------|------|------|--------|
D|--------|-----------------|--------|------|------|--------|
A|--------|10101010-12121212|-7-5----|3-3-33|4-4-44|5-5-55-5|
E|22223333|-----------------|-----7/-|------|------|------5-|
                    ( / = slide to the headstock )

G|--------|--------|--------|--------|--------|-------------|
D|--------|--------|--------|--------|--------|-------------|
A|66666666|8888888/|--------|--------|--------|-------------|
E|--------|--------|33333333|33333333|22222222|77777777-----|

G|--------|--------|---------|--------|--------|------------|
D|--------|--------|---------|-97-----|--------|------------|
A|--------|--------|---------|9--9799-|--------|------------|
E|00000000|22222222|2-0-2-455|--------|33333333|55555555----|

G|---------|--------|--------|--------|------------|--------|
D|---------|--------|--------|--------|------------|--------|
A|---------|------45|6666----|8888----|----10101010|12121212|
E|555555555|7777-6--|----0000|----2222|3333--------|--------|

G|--------|--------|---------|--------|--------|------------|
D|--------|--------|---------|--------|--------|55-77-------|
A|--------|--------|678-8-8--|2-2-245~|--22-55-|-----77-55--|
E|/3--3~--|-5--5~--|---8-8-8-|-2-2----|33------|----------55|
		(11)
G|--------|-----711|--------|--------|--------|-------------| 	
D|--------|---79---|--------|--------|--------|-------------|
A|22222222|2-9-----|--------|--------|--------|-------------|
E|--------|--------|33333333|33333333|22222222|77777777-----|

G|--------|--------|--------|--------|--------|-------------|
D|--------|--------|--------|-97-----|--------|-------------|
A|--------|--------|--------|9--9799-|--------|-------------|
E|00000000|22222222|2-0-2455|--------|33333333|55555555-----|

G|---------|--------|--------|--------|------------|--------|
D|---------|--------|--------|--------|------------|--------|
A|---------|------45|6666----|8888----|----10101010|121212--|
E|555555555|7777-6--|----0000|----2222|3333--------|--------|

 (11)(12)(11)
G|----------|--------|--------|--------|--------|-----------|
D|111211----|--------|--------|--------|--------|-----------|
A|------12--|--------|--------|--------|--------|-----------|
E|---------3|--------|--------|--------|--------|-----------|
Colaboración y revision:
  • Luis Fernando
44 reproducciones

0 comentarios

Ver todos os comentários

¿Conseguiste tocar?

0 Tocaram 0 Ainda não

Grave um vídeo tocando Rem e nos envie!

00:00 / 00:00
outros vídeos desta música
repetir qualidade Automático
Outros vídeos desta música
00:00 / 00:00
Automático
OK