Cifra Club

Aprenda

Mirame

Nikki Clan

Tablatura: Principal (guitarra)
Tom: B

Intro:

    [A5]            [E5]
Eb|----------------|---------------|
Bb|-------5-5  ----|------7-6h7----|
Gb|-------5-4h5----|-9-9--8-8  ----|
Db|--7-7---------7-|-9-9-----------|
Ab|--7-7---------7-|-7-7-----------|
Eb|--5-5---------5-|---------------|
    pm...       pm.......
                               Yeah!  yeah!

Estrofa: usar el riff de la intro.
-------

A5                    E5
   Ya no se ni que hacer para que te fijes

A5                      E5
   Me aparezco donde estés para que me mires

A5                E5
   Me muero por ti y tú ni me ves

A5                 E5              F
   Me va a enloquecer tu forma de ser

G            F     G5 G#5
   Tú no me ves...


coro:
----
     A5      F5        G5          E5          A5
Mírame, Mírame que no ves Traigo a otros al revés

      F5       G5      E5
Pero tú ni me ves

     A5      F5        G5          E5           A5
Mírame, Mírame Que no ves Que me tienes a tus pies

       F5      G5      E5
Por favor mírame,

GTR.01       [A5]                 [E5]
          Eb|--------------------|---------------||
          Bb|------5-5  ---------|------7-6h7----||
          Gb|------5-4h5---------|-9-9--8-8  ---.||
          Db|-7-7--------------7-|-9-9----------.||
          Ab|-7-7--------------7-|-7-7-----------||
          Eb|-5-5--------------5-|---------------||
             pm...            pm.......

Tan solo mírame.

GTR.02
          Db|--------------------|---------------|
          Ab|------------7-7h8h7-|---------------|
          Eb|-5------------------|-7-------------|

          Db|--------------------|---------------|
          Ab|------------0-3-5---|---------------|
          Eb|-5------------------|-0-------------|


Estrofa: usar el riff de la intro.
-------

A5                  E5
   Tus amigos me gane y de qué me sirve

A5                        E5
   Soy más dulce que la miel Y con otras ríes

A5                 E5
   Me va a enloquecer tu forma de ser

A5               E5            F
   Me muero por ti y tú ni me ves

G               F     G5 G#5
   No se que hacer...


Coro 02:
-------

     A5      F5        G5          E5          A5
Mírame, Mírame que no ves Traigo a otros al revés

      F5       G5      E5
Pero tú ni me ves

     A5      F5        G5          E5           A5
Mírame, Mírame Que no ves Que me tienes a tus pies

       F5      G5
Por favor mírame,

          E5  A5          F5           G5
Tan solo mírame (Te quiero, te quiero)

          E5  A5        F5       G5
Tan solo mírame (Contigo me veo)

          E5  A5         F5         G5
Tan solo mírame (Perderte no puedo)

          E5  A5        F5          G5   E5
Tan solo mírame (Conmigo te quiero)



      C       F      Am   G
   Tener tu amor Sería mejor

     C       F       Am      G
   Así, sin ti  Me siento morir

                  F5   G5
   Y no se que hacer

             F5    G5 G#5
   Tú no me ves...
Compositor Jade Ell / Petter Holmberg / Petter Lindgard
180 reproducciones
    • ½ Tom
    • A
    • Bb
    • B
    • C
    • Db
    • D
    • Eb
    • E
    • F
    • F#
    • G
    • Ab
  • Adicionar à lista

    0 comentarios

    Mostrar mais comentários

    ¿Conseguiste tocar?

    0 Tocaron 0 Ainda não

    Grave um vídeo tocando Mirame e mande pra gente!

    00:00 / 00:00
    outros vídeos desta música
    repetir qualidade Automático
    Outros vídeos desta música
    00:00 / 00:00
    Automático
    OK