Cifra Club

Aprenda

No Me Digas Que No

Nikki Clan

Tablatura: Principal (guitarra)
Tom: A
Tabbed by: Engel del mal
Email: *

Tuning:

e|---------------------------------------------------------------------------|
B|---------------------------------------------------------------------------|
G|-----------------7-7-7-7-9-9-9-9-------------------------------------------|x4
D|-7-7-7-7-7-7-7-7-7-7-7-7-9-9-9-9-------------------------------------------|
A|-7-7-7-7-7-7-7-7-5-5-5-5-7-7-7-7-------------------------------------------|
E|-5-5-5-5-5-5-5-5-----------------------------------------------------------|
   x x x x x x x x x x x x x x x x 
e|---------------------------------------------------------------------------|
B|---------------------------------------------------------------------------|
G|-----------------7-7-7-7-7-7-7-7-------------------------------------------|
D|-4-4-4-4-4-4-4-4-7-7-7-7-7-7-7-7-4-4-4-4-4-4-4-4-2-2-2-2-2-2-2-2-----------|
A|-4-4-4-4-4-4-4-4-5-5-5-5-5-5-5-5-4-4-4-4-4-4-4-4-2-2-2-2-2-2-2-2-----------|
E|-2-2-2-2-2-2-2-2-----------------2-2-2-2-2-2-2-2-0-0-0-0-0-0-0-0-----------|
   dices que como amigos....
e|---------------------------------------------------------------------------|
B|---------------------------------------------------------------------------|
G|-------------------------7-7-7-7---------------------------7-7-7-7---------|
D|-7-7-7-7-2-2-2-2-4-4-4-4-7-7-7-7---7-7-7-7-2-2-2-2-4-4-4-4-7-7-7-7---------|
A|-7-7-7-7-2-2-2-2-4-4-4-4-5-5-5-5---7-7-7-7-2-2-2-2-4-4-4-4-5-5-5-5---------|
E|-5-5-5-5-0-0-0-0-2-2-2-2-----------5-5-5-5-0-0-0-0-2-2-2-2-----------------|
   no, no me digas que no.....
e|---------------------------------------------------------------------------|
B|---------------------------------------------------------------------------|
G|-------------------------7-7-7-7-------------------7-7-7-7-9-9-9-9---------|
D|-7-7-7-7-2-2-2-2-4-4-4-4-7-7-7-7---7-7-7-7-2-2-2-2-7-7-7-7-9-9-9-9---------|
A|-7-7-7-7-2-2-2-2-4-4-4-4-5-5-5-5---7-7-7-7-2-2-2-2-5-5-5-5-7-7-7-7---------|
E|-5-5-5-5-0-0-0-0-2-2-2-2-----------5-5-5-5-0-0-0-0-------------------------|
   si lo que quieres es huir....


e|-5-5-5-5-7-7-4-4----5-5-5-5-------7-----4----------------------------------|
B|--5-5-5-5-7-7-5-5----5-5-5-5-5/7-7-7-5-5-5---------------------------------|
G|---------------------------------------------------------------------------|x2
D|---------------------------------------------------------------------------|
A|---------------------------------------------------------------------------|
E|---------------------------------------------------------------------------|
    (2da guitarra)

e|---------------------------------------------------------------------------|
B|---------------------------------------------------------------------------|
G|-----------------7-7-7-7-9-9-9-9-------------------------------------------|x4
D|-7-7-7-7-7-7-7-7-7-7-7-7-9-9-9-9-------------------------------------------|
A|-7-7-7-7-7-7-7-7-5-5-5-5-7-7-7-7-------------------------------------------|
E|-5-5-5-5-5-5-5-5-----------------------------------------------------------|
   x x x x x x x x x x x x x x x x 
    (1era guitarra)




e|-5-7-5-7-4-7-4-7-5-7-5-7-4-7-4-7-------------------------------------------|
B|--5-5-5-5-5-5-7-5-5-5-5-5-5-5-5-5------------------------------------------|
G|---------------------------------------------------------------------------|x2
D|---------------------------------------------------------------------------|
A|---------------------------------------------------------------------------|
E|---------------------------------------------------------------------------|
    (2da guitarra) coro

 
e|---------------------------------------------------------------------------|
B|---------------------------------------------------------------------------|
G|-7-7-x-9-9-x-5-5--------------7-7-x-9-9-x-5-5-7-7-7-7-7--------------------|
D|-7-7-x-9-9-x-5-5-5-5-5-5-5----7-7-x-9-9-x-5-5-7-7-7-7-7--------------------|
A|-5-5-x-7-7-x-3-3-5-5-5-5-5----5-5-x-7-7-x-3-3-5-5-5-5-5--------------------|
E|-----------------3-3-3-3-3-------------------------------------------------|
    tarde o temprano.....


e|-------------------------------------------------------------------------------|
B|-------------------------------------------------------------------------------|
G|-------------------------------------------------------------------------------|
D|-4-4-4-4-4-4-4-4-7-7-7-7-7-7-7-7--4-4-4-4-4-4-4-4-9-9-9-9-9-9-9-9-9-9-9-9-9-9-9|
A|-4-4-4-4-4-4-4-4-7-7-7-7-7-7-7-7--4-4-4-4-4-4-4-4-9-9-9-9-9-9-9-9-9-9-9-9-9-9-9|
E|-2-2-2-2-2-2-2-2-5-5-5-5-5-5-5-5--2-2-2-2-2-2-2-2-7-7-7-7-7-7-7-7-7-7-7-7-7-7-7|
   te usara....



    facil...




===============================================================================
199 reproducciones
    • ½ Tom
    • A
    • Bb
    • B
    • C
    • Db
    • D
    • Eb
    • E
    • F
    • F#
    • G
    • Ab
  • Adicionar à lista

    0 comentarios

    Mostrar mais comentários

    ¿Conseguiste tocar?

    0 Tocaron 0 Ainda não

    Grave um vídeo tocando No Me Digas Que No e mande pra gente!

    00:00 / 00:00
    outros vídeos desta música
    repetir qualidade Automático
    Outros vídeos desta música
    00:00 / 00:00
    Automático
    OK