Cifra Club

Aprenda

No Me Digas Que No

Nikki Clan

Tab de bajo: Principal
INTRO/VERSO:
G|-----------------|-----------------|-----------------|-----------------|
D|-----------------|-----------------|-----------------|-----------------|
A|-----------------|-----------------|-----------------|-----------------|
E|-----------------|-5-5-------------|-5-5-------------|-5-5-------------|
             Amigos...            mas...          Mismo...
PRE-CORO:
G|-----------------|-----------------|-----------------|-----------------|
D|-----------------|-----------------|-----------------|-----------------|
A|-----------------|-5-5-5-5-5-5-5-5-|-----------------|-7-7-7-7-7-7-7-7-|
E|-5-5-5-5-5-5-5-5-|-----------------|-5-5-5-5-5-5-5-5-|-----------------|
CORO:
G|------------------|------------------|
D|------------------|------------------|
A|-------------5555-|-------------5555-|
E|-555500002222-----|-555500002222-----|

G|------------------|------------------|
D|------------------|------------------|
A|-------------5555-|---------55557777-|
E|-555500002222-----|-55550000---------|  x2

VERSO 2:
G|-------------------|-------------------|
D|-------------------|-------------------|
A|----------5555-7777|----------5555-7777|
E|-55555555----------|-55555555----------|
 Te Gusta...         Volarme...

G|-------------------|-------------------|
D|-------------------|-------------------|
A|----------5555-7777|----------5555-7777|
E|-55555555----------|-55555555----------|
 QuE Quieres...      PeRo Te La...

PRE-CORO:
G|-----------------|-----------------|-----------------|-----------------|
D|-----------------|-----------------|-----------------|-----------------|
A|-----------------|-5-5-5-5-5-5-5-5-|-----------------|-7-7-7-7-7-7-7-7-|
E|-5-5-5-5-5-5-5-5-|-----------------|-5-5-5-5-5-5-5-5-|-----------------|
CORO:
G|------------------|------------------|
D|------------------|------------------|
A|-------------5555-|-------------5555-|
E|-555500002222-----|-555500002222-----|

G|------------------|------------------|
D|------------------|------------------|
A|-------------5555-|---------55557777-|
E|-555500002222-----|-55550000---------|  x2
PUENTE:
G|------------------|------------------|------------------|
D|------------------|------------------|------------------|
A|-55-5--7-77--3----|-55-5--7-77--3-55-|-55-5--7-77--3----|
E|---------------33-|------------------|---------------33-|

G|------------------------------------------|
D|------------------------------------------|
A|-----------------555555557777777777777777-|
E|-2222222255555555-------------------------|
CORO:
G|------------------|------------------|
D|------------------|------------------|
A|-------------5555-|-------------5555-|
E|-555500002222-----|-555500002222-----|

G|------------------|------------------|
D|------------------|------------------|
A|-------------5555-|---------55557777-|
E|-555500002222-----|-55550000---------|  x2

G|------------------|------------------|-----|
D|------------------|------------------|-----|
A|-------------5555-|---------55557777-|-----|
E|-555500002222-----|-55550000---------|--5--|
71 reproducciones

0 comentarios

Mostrar mais comentários

¿Conseguiste tocar?

0 Tocaron 0 Ainda não

Grave um vídeo tocando No Me Digas Que No e mande pra gente!

00:00 / 00:00
outros vídeos desta música
repetir qualidade Automático
Outros vídeos desta música
00:00 / 00:00
Automático
OK