Cifra Club

Capital G

Nine Inch Nails

Cifrado: Principal (guitarra y guitarra eléctrica)
tono: D
ok, so this song took me like 15min to figure out. Its not that hard, i think the chrous 
right for the most part...

Chorus
  (x16) (x16)
|-----------------|
|-----------------|
|--13----14-------|
|---x-----x-------|
|--11----12-------|
|-----------------|

|--------------------------------------|
|--------------------------------------|
|--------------------------------------|
|(5h)7^7^7^7^7^7^----7^7^7^7^7^7^------|
|----------------777-------------777---|
|--------------------------------------|

Solo
|-----------------------------------(22)--------|
|-----------------------------------------------|
|-----------------------------------------------|x2
|-----------------------------------------------|
|-(0)5-7-------------(0)5-7---------------------|
|--------3-5-3-5-3-0--------3-5-3-5-------------|

(in background)
|-----------|
|-----------|
|---17------|
|----x------|
|---15------|
|-----------|


That all of it(i think)...
Composición de Trent Reznor
24 vistas
    • ½ Tono
    • A
    • Bb
    • B
    • C
    • Db
    • D
    • Eb
    • E
    • F
    • F#
    • G
    • Ab
  • Agregar a la lista

    0 comentarios

    Ver todos los comentarios
    00:00 / 00:00
    Outros vídeos desta música
    Repetir Calidad Automático
    Outros vídeos desta música
    00:00 / 00:00
    Automático
    OK