Cifra Club

Aprenda

Getting Smaller

Nine Inch Nails

Tablatura: Principal (guitarra)
Tom: B
From With Teeth Released 2005

Tabbed by uracompletetool for *

Intro
Eb-------------------------------------------------------------|
Bb-------------------------------------------------------------|
Gb-------------------------------------------------------------|
Db------------------------------------------12-12-12-12--------|
Ab--2-2-2-2-2--------------------------------------------------|
Eb--0-0-0-0-0--12-12-12-12-12---------0-0-0--------------------|

Verse
Eb-----------------------------------------------------|
Bb-----------------------------------------------------|
Gb-----------------------------------------------------|
Db-----------------------------------------------------|
Ab-----------------------------------------------------|
Eb--0-0-0-0-3-3-0-0-0-0-0-3-3-5-0----------------------| Repeat

Chorus
Eb------------------------------------------------------------------|
Bb------------------------------------------------------------------|
Gb------------------------------------------------------------------|
Db------------------------------------------------------------------|
Ab---10-10-10\7-7\6-6\5-5\3-10-10\7-7\6-6\5-5\3---------------------|
Eb------------------------------------------------------------------|

Bridge
Eb------------------------------------------------------------------|
Bb------------------------------------------------------------------|
Gb------------------------------------------------------------------|
Db--10-10-10-10-10-7--7---------------------------------------------|
Ab--8--8--8--8--8--5--5---------------------------------------------|
Eb------------------------------------------------------------------|

And thats all the main parts of the song. The starts a little messy, but i hope you can 
it out from what ive put down

Post any comments and please rate the tab!
Compositor Trent Reznor
19 reproducciones
    • ½ Tom
    • A
    • Bb
    • B
    • C
    • Db
    • D
    • Eb
    • E
    • F
    • F#
    • G
    • Ab
  • Adicionar à lista

    0 comentarios

    Mostrar mais comentários

    ¿Conseguiste tocar?

    0 Tocaron 0 Ainda não

    Grave um vídeo tocando Getting Smaller e mande pra gente!

    00:00 / 00:00
    outros vídeos desta música
    repetir qualidade Automático
    Outros vídeos desta música
    00:00 / 00:00
    Automático
    OK