Cifra Club

Aprenda

Hurt

Nine Inch Nails

Tablatura: Principal (guitarra)
Tom: D
[Primeira Parte]

E|-------------------------------10--------------|
B|---------------------5-------------------------|
G|-----10---7--------7---------7-----------------|
D|-----------------7---------9-------------------|
A|---9-----------5---------7---------------------|
E|-7---------------------------------------------|

E|-----------------------------------------------|
B|---------------------5-------------------------|
G|-----10---7--------7-----------7---------------|
D|-----------------7---------9-------------------|
A|---9-----------5---------7---------------------|
E|-7---------------------------------------------|

I hurt myself today
To see if i still feel
I focus on the pain
The only thing that's real
The needle tears a hole
The old familiar sting
Try to kill it all away
But i remember everything

( A5  B5  G5  D5 )
( A5  B5  G5  D5 )

[Refrão]

A5  B5           G5      
  What have i become?
D5               A5
  My sweetest friend
B5           G5
Everyone i know
       D5        A5
Goes away in the end

 B5               G5   
You could have it all
 D5           A5
My empire of dirt
B5              G5
I will let you down
D5                
I will make you hurt

[Segunda Parte]

E|-------------------------------10--------------|
B|---------------------5-------------------------|
G|-----10---7--------7---------7-----------------|
D|-----------------7---------9-------------------|
A|---9-----------5---------7---------------------|
E|-7---------------------------------------------|

E|-----------------------------------------------|
B|---------------------5-------------------------|
G|-----10---7--------7-----------7---------------|
D|-----------------7---------9-------------------|
A|---9-----------5---------7---------------------|
E|-7---------------------------------------------|

I wear my crown of shit
On my liar's chair
Full of broken thoughts
I cannot repair
Beneath the stain of time
The feeling disappears
You are someone else
I am still right here

( A5  B5  G5  D5 )

[Refrão]

A5  B5           G5      
  What have i become?
D5               A5
  My sweetest friend
B5           G5
Everyone i know
       D5        A5
Goes away in the end

 B5               G5   
You could have it all
 D5           A5
My empire of dirt
B5              G5
I will let you down
D5               A5             
I will make you hurt

   B5              G5
If i could start again
   D5             A5
A million miles away
B5              G5
I would keep myself
A5       D5     B5
I would find a way
Compositor Trent Reznor
Colaboración y revision:
  • Lucas Kappaun
  • Alessandro Jacomasso
1.374 reproducciones
    • ½ Tom
    • A
    • Bb
    • B
    • C
    • Db
    • D
    • Eb
    • E
    • F
    • F#
    • G
    • Ab
  • Adicionar à lista

    0 comentarios

    Mostrar mais comentários
    00:00 / 00:00
    outros vídeos desta música
    repetir qualidade Automático
    Outros vídeos desta música
    00:00 / 00:00
    Automático
    OK