Cifra Club

Aprenda

Hyperpower

Nine Inch Nails

Tablatura: Principal (guitarra)
Tom: F
 Drop B tuning 
 B F# B E G# C#


 00:12

 Gtr I
|----------------------------------|
|----------------------------------|
|----------------------------------|
|-0---0---3-0-0-0---0-0-0---0-0----|
|-----------------3-------3--------|
|----------------------------------|

 
 00:34

 Bass
|----------------------------------|
|-0-0-0-0-3-0-0-0-3-0-0-0-3-0-0----|
|----------------------------------|
|----------------------------------|

 
 00:56

 Gtr II
|-------------------------------------------------|
|-------------------------------------------------|
|-14-14-14-14-14-14-14-14-14-14-14-14-14-14-14-14-|
|-------------------------------------------------|
|-12-12-12-12-12-12-12-12-12-12-12-12-12-12-12-12-|
|-------------------------------------------------|

|-------------------------------------------------|
|-------------------------------------------------|
|-14-14-14-14-14-14-14-14-14-14-14-14-14-13-13----|
|-------------------------------------------------|
|-14-12-12-12-12-12-12-12-12-12-12-12-12-11-11/14-|
|-------------------------------------------------|

|-------------------------------------------------|
|-------------------------------------------------|
|-13-13-13-13-13-13-13-13-13-13-13-13-13-13----13-|
|-------------------------------------------------|
|-11-11-11-11-11-11-11-11-11-11-11-11-11-11/14-11-|
|-------------------------------------------------|


|-------------------------------------------------|
|-------------------------------------------------|
|-13-13-13-13-13-13-10-10-13-13-10-10-10-10-10-10-|
|-------------------------------------------------|
|-11-11-11-11-11-11-8--8--11-11-8--8--8--8--8--8--|
|-------------------------------------------------|

|-------------------------------------------------|
|-------------------------------------------------|
|-14-14-14-14-14-14-14-14-14-14-14-14-14-14-14-14-|
|-------------------------------------------------|
|-12-12-12-12-12-12-12-12-12-12-12-12-12-12-12-12-|
|-------------------------------------------------|

|-------------------------------------------------|
|-------------------------------------------------|
|-14-14-14-14-14-14-14-14-14-14-14-14-14-13-13-13-|
|-------------------------------------------------|
|-12-12-12-12-12-12-12-12-12-12-12-12-12-11-11-11-|
|-------------------------------------------------|
|
|additional gtr
|-------------------------------------------------|
|-------------------------------------------------|
|----------15----15----------15----15----15----15-|
|-------------------------------------------------|
|----------13----13----------13----13----13----13-|
|-------------------------------------------------|

|-------------------------------------------------|
|-------------------------------------------------|
|-13-13-13-13-13-13-13-13-13-13-13-13-13-13-13-13-|
|-------------------------------------------------|
|-11-11-11-11-11-11-11-11-11-11-11-11-11-11-11-11-|
|-------------------------------------------------|
|
|
|-------------------------------------------------|
|-------------------------------------------------|
|----------15-15----------15----------------------|
|-------------------------------------------------|
|----------13-13----------13----------------------|
|-------------------------------------------------|

|-------------------------------------------------|
|-------------------------------------------------|
|-13-13-13-13-13-13-10-10-13-13-10-10-10-10-------|
|-------------------------------------------------|
|-11-11-11-11-11-11-8--8--11-11-8--8--8--8--------|
|-------------------------------------------0-----|
|
|
|--------------------------------------------------|
|--------------------------------------------------|
|-------------------10----13---10-----10-10--------|
|--------------------------------------------------|
|-------------------8-----11---8------8--8---------|
|-------------------------------------------0------|


 01:19

 Gtr I
|----------------------------------|
|----------------------------------|
|-----------------------------5----|
|-------------------------5h7------|
|-5-5---x-x-x-5-5---5---5----------|
|-0-0---x-x-x-0-0---0---0----------|

|----------------------------------|
|----------------------------------|
|-7---------------------------5----|
|-x-----------------------5h7------|
|-5-5---x-x-x-5-5---5---5----------|
|-0-0---x-x-x-0-0---0---0----------| thru the end
Compositor Trent Reznor
10 reproducciones
    • ½ Tom
    • A
    • Bb
    • B
    • C
    • Db
    • D
    • Eb
    • E
    • F
    • F#
    • G
    • Ab
  • Adicionar à lista

    0 comentarios

    Mostrar mais comentários

    ¿Conseguiste tocar?

    0 Tocaron 0 Ainda não

    Grave um vídeo tocando Hyperpower e mande pra gente!

    00:00 / 00:00
    outros vídeos desta música
    repetir qualidade Automático
    Outros vídeos desta música
    00:00 / 00:00
    Automático
    OK