Cifra Club

In This Twilight

Nine Inch Nails

Tab de bajo: Principal
standard tuning 

 
 repeating synth chord

e|-4---------------|-4---------------|-4---------------|-4---------------|
B|-----------------|-----------------|-----------------|-----------------|
G|-----------------|-----------------|-----------------|-----------------|
D|-----------------|-----------------|-----------------|-----------------|
A|-----------------|-----------------|-----------------|-----------------|
E|-0---------------|-0---------------|-0---------------|-0---------------|

 
 guitar?

e|-----------------|-----------------|-----------------|-----------------|
B|-----------------|-----------------|-----------------|-----------------|
G|-4---------------|-2---------------|-4---------------|-2---------------|
D|-----------------|-----------------|-----------------|-----------------|
A|-----------------|-----------------|-----------------|-----------------|
E|-----------------|-----------------|-----------------|-----------------|



 BASS


 Verse

G|-----------------|-----------------|-----------------|-----------------|
D|-----------------|-----------------|-----------------|-----------------|
A|-0---------------|-----------------|-----------------|-----------------|
E|-----------------|-----------------|-0---------------|-----------------|

 
 Chorus (use octaver to get that ultra low sound)

G|-----------------|-----------------|-----------------|-----------------|
D|-----------------|-----------------|-----------------|-----------------|
A|-3-3-3-3-3-3-3-3-|-2-2-2-2-2-2-2-2-|-5-5-5-5-5-5-5-5-|-4-4-4-4-4-4-4-4-|
E|-----------------|-----------------|-----------------|-----------------|


 yope! that's all
Composición de Trent Reznor
12 vistas

0 comentarios

Ver todos los comentarios
00:00 / 00:00
Outros vídeos desta música
Repetir Calidad Automático
Outros vídeos desta música
00:00 / 00:00
Automático
OK