Cifra Club

Into The Void

Nine Inch Nails

Cifrado: Principal (guitarra y guitarra eléctrica)
Selo Cifra Club: esta cifra foi revisada para atender aos critérios oficiais da nossa Equipe de Qualidade.
tono: G
E|--------------------| |---------11-----|---------------9---|
B|--------------------| |--13------------|-10--11--13--------|
G|--------------------| |----------------|-------------------|
D|--------------------| |----------------|-------------------|
A|--------------------| |----------------|-------------------|
E|--8-----8--9--8--6--| |----------------|-------------------|

guitar1 (0:32) repeat thru whole song. 

E|----------------------|---------------------|
B|----------------------|---------------------|
G|:---------------------|--------------------:|
D|--8--9--10------------|---------8--9--10----|
A|-----------------6----|------6--------------|
E|------------8---------|---------------------|

(1:02)                                                   
(Tried to save myself but myself keeps slipping away)(Tried to save myself but myself keeps slipping away)
(Tried to save myself but myself keeps slipping away)(Tried to save myself but myself keeps slipping away)

         
[Verse 1]
Talking to myself all the way to the station, Pictures in my head of the final destination.
All lined up, all the one's that aren't allowed to stay, Tried to save myself but myself keeps slipping away

guitar1
E|----------------------|---------------------|
B|----------------------|---------------------|
G|:---------------------|--------------------:|
D|--8--9--10------------|---------8--9--10----|
A|-----------------6----|------6--------------|
E|------------8---------|---------------------|
         
[Refrain]
Ahh-ah, ah, ah, Oh, woah, oh, oh
Oh, woah, oh, oh, Oh, woah, oh, oh

guitar2
E|-------------------------------------|
B|-------------------------------------|
G|:-----------------------------------:|
D|--2--8| B-----8\-7----7\-6----6\-5-----|
A|--x--x------x--x----x--x----x--x-----|
E|--0--6| B-----6\-5----6\-4----4\-3-----|


[Verse 2]
Tried to save a place from the cuts and the scratches,Tried to overcome the complications and the catches
Nothing ever grows and the sun doesn't shine all day, Tried to save myself but myself keeps slipping away

 guitar1
E|----------------------|---------------------|
B|----------------------|---------------------|
G|:---------------------|--------------------:|
D|--8--9--10------------|---------8--9--10----|
A|-----------------6----|------6--------------|
E|------------8---------|---------------------|

guitar2
E|-------------------------------------|
B|-------------------------------------|
G|:-----------------------------------:|
D|--2--8| B-----8\-7----7\-6----6\-5-----|
A|--x--x------x--x----x--x----x--x-----|
E|--0--6| B-----6\-5----6\-4----4\-3-----|


                                            
Tried to save myself but myself keeps slipping away, Tried to save myself but myself keeps slipping away
Oh, woah, oh, oh

[Bridge]
 
E|---------------------| |---10--9------------------|
B|---------------------| |------------6--7--8--9----|
G|:------------8------:|   |:------------------------:|
D|--10--8--10-----10---| |--------------------------|
A|---------------------| |--------------------------|
E|---------------------| |--------------------------|

[Chorus]
guitar1
E|----------------------|---------------------|
B|----------------------|---------------------|
G|:---------------------|--------------------:|
D|--8--9--10------------|---------8--9--10----|
A|-----------------6----|------6--------------|
E|------------8---------|---------------------|

guitar2
E|-------------------------------------|
B|-------------------------------------|
G|:-----------------------------------:|
D|--2--8| B-----8\-7----7\-6----6\-5-----|
A|--x--x------x--x----x--x----x--x-----|
E|--0--6| B-----6\-5----6\-4----4\-3-----|

       
[Outro]
Tried to save myself but myself keeps slipping

E|--------------------------|
B|--------------------------|
G|--------------------------|
D|--------------------------|
A|--------------------------|
E|--------------------------|



\ = slid down    / = slide up
h = hammer on    p = pull off
B = full Bend    b = half bend
x = dead note  (#)= ghost note
00:00 / 00:00
Otros videos de esta canción
Repetir
Otros videos de esta canción
32 exhibiciones
    • ½ Tono
    • A
    • Bb
    • B
    • C
    • Db
    • D
    • Eb
    • E
    • F
    • F#
    • G
    • Ab
  • Agregar a la lista

Afinación de cifrado

Afinador online

    00:00 / 00:00
    OK