Cifra Club

Aprenda

Survivalism

Nine Inch Nails

Tab de bajo: Principal
Album: Year Zero


After i found the guitar tab, i realized there wasn't a bass tab so i thought i would 
it a try.
There are alot of things going on in this song that might confuse some people for the bassline.
Well this is my first tab and i tried my best so here it is.

Please Rate. thanks!

The H is a hammer on...


Bass Intro:
g|--------------------------------|
d|--------------------------------|
a|--------------------------------|
E|-5-5-5-5-5-5-5---5-5-5-5-5-5-5--|


Verse 1:
g|--------------------------------|
d|--------------------------------|
a|--------------------------------|
E|-3-5-5-5-5-5-5---3-5-5-5-5-5-5--|
     H               H

Chorus:
g|--------------------------------|
d|--------------------------------|
a|-5-5-5-5-5-5-5-5-3-3-3-3-3-3-3-3|
E|--------------------------------|

g|--------------------------------|
d|--------------------------------|
a|-------------3------------------|
E|-3-5-5-5-5-5-----3-5-5-5-5-5-5-5|
     H               H

g|--------------------------------|
d|--------------------------------|
a|-5-5-5-5-5-5-5-5-3-3-3-3-3-3-3-3|
E|--------------------------------|

g|--------------------------------|
d|--------------------------------|
a|-------------3------------------|
E|-3-5-5-5-5-5-----3-5-5-5-5-5-5-5|
     H               H

Verse 2:

g|--------------------------------|
d|--------------------------------|
a|-------------3-----------------3|
E|-3-5-5-5-5-5-----3-5-5-5-5-5-5--|
     H               H

Outro: (Beggining Immediately after Chorus)

If you listen closely, the bass plays the single "A note riff" 8 times until about
halfway through the guitar riff, then switches it up, adding the G and C
There are actually two ending riffs for the bass

g|--------------------------------|
d|--------------------------------|
a|--------------------------------|
E|-5-5-5-5-5-5-5---5-5-5-5-5-5-5--| X 8

g|--------------------------------|
d|--------------------------------|
a|-------------3-----------------3|
E|-3-5-5-5-5-5-----3-5-5-5-5-5-5--| X 8
     H               H

g|--------------------------------|
d|--------------------------------|
a|--------------------------------|
E|-5-5-5-5-5-5-5---5-5-5-5-5-5-5--| X 8

g|--------------------------------|
d|--------------------------------|
a|-------------3-----------------3|
E|-3-5-5-5-5-5-----3-5-5-5-5-5-5--| X 8
     H               H
g|--------------------------------|
d|--------------------------------|
a|--------------------------------|
E|-5-5-5-5-5-5-5---5-5-5-5-5-5-5--| X 2


In the 2nd verse, i dont know if you want to add the "C" but i think it sounds cool, a 
more active.
Plus there are alot of synth lines that may be playing that riff but it sounds good on bass.

MMM-BlooD@*
Compositor Trent Reznor
15 reproducciones

0 comentarios

Mostrar mais comentários

¿Conseguiste tocar?

0 Tocaron 0 Ainda não

Grave um vídeo tocando Survivalism e mande pra gente!

00:00 / 00:00
outros vídeos desta música
repetir qualidade Automático
Outros vídeos desta música
00:00 / 00:00
Automático
OK