Cifra Club

Aprenda

The Becoming

Nine Inch Nails

Tab de bajo: Principal
                                                                         
  transcibed by :Fred  *

  Synth part during the beginning of the song
  there are some variations at points
G-|--------------------------------------------|
D-|--------------------3-----------------------|
A-|----------------3-4---4-3-------------------|
E-|-3-3-3-5--3-3-4-----------4-3--3-3-3--1-1-1-|
                                                                               
                                                                               
G-|-----------------------------------------------------------------|
D-|-----------------------------------------------------------------|
A-|-------------------3-3-3-3--1-1-1-1-----------3-3-3-3------------|
E-|-3-3-3-3--1-1-1-1--------------------1-1-1-1----------1-0-1-0-1--|
    played with accustic part                                                  
                                                                               
Composição de Trent Reznor
10 reproducciones

0 comentarios

Ver todos os comentários
00:00 / 00:00
outros vídeos desta música
repetir qualidade Automático
Outros vídeos desta música
00:00 / 00:00
Automático
OK