Cifra Club

Wish

Nine Inch Nails

Cifrado: Principal (guitarra y guitarra eléctrica)
tono: F
Riff A
-----------------------|-------------
-----------------------|----12-12-12-
-14/16\14-12---12---14-|-14----------
-----------------------|-------------
-----------------------|-------------
-----------------------|-------------

Riff B
-------------------------------------
-------------------------------------
-7-7-7-7-7-8-7--7-7-7-7-7-8-7--------
-7-7-7-7-7-8-7--7-7-7-7-7-8-7--------
-5-5-5-5-5-6-5--5-5-5-5-5-6-5--------
-------------------------------------


RIFF A                                   RIFF B
This is the first day of my last days..............
(A)Build it up, now take it apart, climbed up real high, now fall down real far (B)
(A)No need me to stay, last thing left, I just threw it away! (B)
(A)My faith in god, my trust in you, now there's nothing more fucked up I can do! (B)
(Na última vez, tocar o RIFF B e pausar por um segundo e fazer denovo)

REFRÃO
----                           ---      
-10-                           -5-      
-10-                           -5-      
-10-                           -5-
-8--                           -3-                              Riff B
----                           ---      

Wish there was something real, wish there was something true.
Wish there was something real, in this world full of you!



(A)Now I'm the one without a soul, I'm the one with this big fucking hole!(B)
(A)No new tale to tell, 26 years, on my way to hell.(B)
(A)Gotta listen to your big time hard line bad luck FIST FUCK!(B)
(A)Well don't think you're having all the fun, you know me, I hate EVERYONE!(B)

REFRÃO
----                           ---      
-10-                           -5-      
-10-                           -5-      
-10-                           -5-
-8--                           -3-                              Riff B
----                           ---      

Wish there was something real, wish there was something true.
Wish there was something real, in this world full of you!


REPETIR O REFRÃO VÁRIAS VEZES E TERMINAR COM
-5-3-5-6-5-3-0---5-3-5-6-5-3-0------
-5-3-5-6-5-3-0---5-3-5-6-5-3-0------
-5-3-5-6-5-3-0---5-3-5-6-5-3-0------
-5-3-5-6-5-3-0---5-3-5-6-5-3-0------
-5-3-5-6-5-3-0---5-3-5-6-5-3-0------
-5-3-5-6-5-3-0---5-3-5-6-5-3-0------
Composición de Trent Reznor
Colaboración y revisión:
  • Johnny
66 vistas
    • ½ Tono
    • A
    • Bb
    • B
    • C
    • Db
    • D
    • Eb
    • E
    • F
    • F#
    • G
    • Ab
  • Agregar a la lista

    0 comentarios

    Ver todos los comentarios
    00:00 / 00:00
    Outros vídeos desta música
    Repetir Calidad Automático
    Outros vídeos desta música
    00:00 / 00:00
    Automático
    OK