Cifra Club

About a Girl

Nirvana

Tab de bajo: Principal
   Intro
G-----------------------------------|
D-----------------------------------|
A-----------------------------------|
E---0-00-3-33---0-0-0-3-3-3-3-------|

   Versos

      E          G7M         E          G
G|----------|----------|----------|----------|
D|----------|----------|----------|----------|
A|----------|----------|----------|---2---2--|
E|-0-00-----|-3-23-----|-0-0-0----|-3---3----|

Refrao part 1:

      C#         G#         F#         F#
G|----------|----------|----------|----------|
D|----------|----------|----------|----------|
A|-4-44-----|----------|----------|----------|
E|----------|-4-44-----|-2-2-4----|-2-4-2-4--|


Refrao part 2:

      E          G         A          C    
G|----------|----------|----------|----------|
D|----------|----------|----------|----------|
A|----------|----------|-0-0-0----|-3-333----|
E|-0-00-----|-3-33-----|----------|----------|
Eh só ir pegando as partes com os ouvidos e ir tocando nas horas certas.
Depois do refrao repete a intro.
00:00 / 00:00
Otros videos de esta canción
Repetir
Otros videos de esta canción
Composición de Kurt Cobain
Colaboración y revisión:
  • Pedro Augusto
1.129 exhibiciones
00:00 / 00:00
OK