Cifra Club

Aero Zeppelin

Nirvana

Cifrado: Versão 5 (guitarra y guitarra eléctrica)
tono: C



intro:                         
|------0-0--------------------0-0--------0---|
|-----------3----3-----------------3---3-----|
|--------------3---3-----------------3-------| X5
|--------------------------------------------|
|--------------------------------------------|
|-0-0--------------------0-0-----------------|
                                                        
--------------0-0------------|
|------------------3--3------|
|--------------------3--3----|
|----------------------------| X1
|----------------------------|
|-------0-0------------------|

|-------------------|
|----------3-3------|
|---------------3---|
|-------------------| X2
|-------------------|
|-----0-0-----------|                      

|------0-0--------------------0-0--------0---|
|-----------3----3-----------------3---3-----|
|--------------3---3-----------------3-------| X5
|--------------------------------------------|
|--------------------------------------------|
|-0-0--------------------0-0-----------------|

        
|----------3-3-------|
|--------------3-----| 
|--------------------|
|--------------------| X4
|--------------------|
|------0-0-----------|

|------------------------------------------|
|------------------------------------------|
|------------------------------------------|
|------------------------------------------| X4
|------2-2-2/5-5----------2-2/1---1--------|
|-0-0------------------0-0------3---3------|

|---------------------------------------------------|
|---------------------------------------------------|
|---------------------------------------------------|
|----------------0-0-0-2-2--------------------------| X4
|-2-2-2-2-2-2--------------4-0--3-----2----1-3------|
|----------------------------------4-----3----------|

|-------------------------|
|-------------------------|
|-------------------------|
|-------------------------| X3
|-4-0--3----2----1-3------|
|---------4----3----------|
        

|---------------------------|
|---------------------------|
|---------------------------|
|---------------------------| X4
|---------------------------|
|--0-0-5-5-4-4-0-5-4--------|

|------------|
|------------|
|------------|
|------------| 
|-----0------|
|-----0------|

|---------------|
|---------------|
|---------------|
|---------------| X7
|---5---5---0---|
|---5---5---0---|
                
|---------------------------------------------------|
|---------------------------------------------------|
|---------------------------------------------------|
|----------------0-0-0-2-2--------------------------| X4
|-2-2-2-2-2-2--------------4-0--3-----2----1-3------|
|----------------------------------4-----3----------|

|-------------------------|
|-------------------------|
|-------------------------|
|-------------------------| X3
|-4-0--3----2----1-3------|
|---------4----3----------|

             
            
|---------------------------|
|---------------------------|
|---------------------------|
|---------------------------| X4
|---------------------------|
|--0-0-5-5-4-4-0-5-4--------|

|------------|
|------------|
|------------|
|------------| 
|-----0------|
|-----0------|

|---------------|
|---------------|
|---------------|
|---------------| X12
|---5---5---0---|
|---5---5---0---|

after this part chris plays the bass alone 
and after that kurt plays the sols
that i dont know about it

                                        
|------------------------------------------|
|------------------------------------------|
|------------------------------------------|
|------------------------------------------| X4
|------2-2-2/5-5----------2-2/1---1--------|
|-0-0------------------0-0------3---3------|

|---------------------------------------------------|
|---------------------------------------------------|
|---------------------------------------------------|
|----------------0-0-0-2-2--------------------------| X4
|-2-2-2-2-2-2--------------4-0--3-----2----1-3------|
|----------------------------------4-----3----------|

|-------------------------|
|-------------------------|
|-------------------------|
|-------------------------|
|-4-0--3----2----1-3------|
|---------4----3----------|
                        
         
|------0-0--------------------0-0--------0---|
|-----------3----3-----------------3---3-----|
|--------------3---3-----------------3-------| 
|--------------------------------------------|
|--------------------------------------------|
|-0-0--------------------0-0-----------------|

well i think this is it, im not sure that its all correct,
but it sounds cool

my e-mail: *

     † MEHDI †
         †
00:00 / 00:00
Otros videos de esta canción
Repetir
Otros videos de esta canción
Composición de Krist Novoselic / Kurt Cobain
13 exhibiciones
    • ½ Tono
    • A
    • Bb
    • B
    • C
    • Db
    • D
    • Eb
    • E
    • F
    • F#
    • G
    • Ab
  • Agregar a la lista
    00:00 / 00:00
    OK