Cifra Club

All Apologies

Nirvana

Tablatura: Principal (guitarra)
Tom: Db (con acordes en la forma de D) Afinação: Eb Ab Db Gb Bb Eb
Riff:
  Parte 1               Parte 2
Eb|---------------------|--------------------------|
Bb|---------------------|---------3-3-1-0----------|
Gb|-----0---2-2-0-------|-----0--------------------|
Db|---4---4-------4-----|---4---4------------------|
Ab|---------------------|--------------------------|
Db|-0-------------------|-0------------------------|

  Parte 3 (igual a 1ª)  Parte 4
Eb|---------------------|---------2-2-0------------|
Bb|---------------------|---------------3----------|
Gb|-----0---2-2-0-------|-----0--------------------|
Db|---4---4-------4-----|---4---4------------------|
Ab|---------------------|--------------------------|
Db|-0-------------------|-0------------------------|

Verso 1:
(Riff)
What else should I be, all apologies
What else should I say, everyone is gay
What else could I write, I don't have the right
What else should I be, all apologies

Refrão:
G6
In the sun
In the sun I feel as one
In the sun
In the sun
 A5(9)
Married
buried

Verso 2:
(Riff)
I wish I was like you, easily amused
Find my nest of salt, everything is my fault
I'll take all the blame, aqua sea foam shame
Sunburn with freeze burn, choking on the ashes of her enemy

Refrão:
G6
In the sun
In the sun I feel as one
In the sun
In the sun
 A5(9)
Married
buried  (2x)

(Riff)
All alone is all we all are...
reproducciones 32.098
Acordes para:

    0 comentarios

    mostrar más comentarios

    ¿Conseguiste tocar?

    116 tocaron 4 aún no

    ¡Graba un vídeo tocando All Apologies y envianoslo!

    00:00 / 00:00
    outros vídeos desta música
    repetir qualidade Automático
    Outros vídeos desta música
    00:00 / 00:00
    Automático
    Capítulos
    • Início
    • Tocando a música
    • Afinação
    • Acordes do Refrão
    • Ensinando Riff
    • Ensinando Ritmo do Refrão
    • Encerramenrto
    OK