Cifra Club

Anorexorcist

Nirvana

Tab de bajo: Principal
Acompaña nuestras novedades de Cifra Club en español.
¡Sigue nuestro perfil en Instagram!
Intro x1
G-----------------|-----------------|
D-3-2-1-3-2-1-3-2-|-1-3-2-1-3-2-1-0-|
A-----------------|-----------------|
E-----------------|-----------------| 

Verse x4 
G-----------------|-----------------|
D-3-2-1-3-2-1-3-2-|-1-3-2-1-3-2-1-0-|
A-----------------|-----------------|
E-----------------|-----------------| 

Interlude x1
G-----------------|-----------------|-----------------|-----------------|
D-----------------|-----------------|-----------------|-----------------|
A-2-r-2-r-2-r-2-2-|-r-2-r-2-r-2-2---|-2-r-2-r-2-2-r-2-|-r-2-2-2-2-2-2-2-|
E-----------------|-----------------|-----------------|-----------------|

Verse x4 
G-----------------|-----------------|
D-3-2-1-3-2-1-3-2-|-1-3-2-1-3-2-1-0-|
A-----------------|-----------------|
E-----------------|-----------------| 

Interlude x1
G-----------------|-----------------|-----------------|-----------------|
D-----------------|-----------------|-----------------|-----------1-2-3-|
A-2-r-2-r-2-r-2-2-|-r-2-r-2-r-2-2---|-2-r-2-r-2-2-r-2-|-r-2-2-2-2-------|
E-----------------|-----------------|-----------------|-----------------|

Chorus x4
G-4---4--4-|--4--4-4-------|-4-----2-----|---------------|
D----------|---------1-2-3-|-----0-----0-|---------1-2-3-| 
A----------|---------------|-------------|-3-2-1---------|
E----------|---------------|-------------|---------------|

Chorus Ends x1
G-4---4--4-|--4--4-4-------|-4-----2-----|---------------|
D----------|---------1-2-3-|-----0-----0-|---------------| 
A----------|---------------|-------------|-3-2-1---1-2-3-|
E----------|---------------|-------------|---------------|

Verse x4 
G-----------------|-----------------|
D-3-2-1-3-2-1-3-2-|-1-3-2-1-3-2-1-0-|
A-----------------|-----------------|
E-----------------|-----------------| 

Interlude x1
G-----------------|-----------------|-----------------|-----------------|
D-----------------|-----------------|-----------------|-----------------|
A-2-r-2-r-2-r-2-2-|-r-2-r-2-r-2-2---|-2-r-2-r-2-2-r-2-|-r-2-2-2-2-2-2-2-|
E-----------------|-----------------|-----------------|-----------------|

Verse x4 
G-----------------|-----------------|
D-3-2-1-3-2-1-3-2-|-1-3-2-1-3-2-1-0-|
A-----------------|-----------------|
E-----------------|-----------------| 

Interlude x1
G-----------------|-----------------|-----------------|-----------------|
D-----------------|-----------------|-----------------|-----------1-2-3-|
A-2-r-2-r-2-r-2-2-|-r-2-r-2-r-2-2---|-2-r-2-r-2-2-r-2-|-r-2-2-2-2-------|
E-----------------|-----------------|-----------------|-----------------|

Chorus x4
G-4---4--4-|--4--4-4-------|-4-----2-----|---------------|
D----------|---------1-2-3-|-----0-----0-|---------1-2-3-|
A----------|---------------|-------------|-3-2-1---------|
E----------|---------------|-------------|---------------|

Outro 
G-4---4--4-|--4--4-4-------|-4-----2-----|-----------------|
D----------|---------1-2-3-|-----0-----0-|-----------------|
A----------|---------------|-------------|-3-2-1(let ring)-|
E----------|---------------|-------------|-----------------|
Composición de Kurt Cobain
Colaboración y revisión:
  • Élison Duarte
62 vistas

0 comentarios

Ver todos los comentarios

¿Lograste tocar?

0 Tocaron 0 Aún no

¡Graba un video tocando Anorexorcist y envíanoslo!

00:00 / 00:00
Outros vídeos desta música
Repetir Calidad Automático
Outros vídeos desta música
00:00 / 00:00
Automático
OK