Cifra Club

Bambi Slaughter

Nirvana

Tab de bajo: Versão 2
BAMBI SLAUGHTER

Verse:
G:------------------------------------------------------------------
D:------------------------------------------------------------------
A:-1-1-1-1-4-4-4-4-9-9-9-9-8-8-8-8----------------------------------
E:---------------------------------1-1-1-1-4-4-4-4-9-9-9-9-8-8-8-8--

Chorus:
G:------------------------------------
D:------------------------------------
A:---------3--------1-----------------
E:-5-5-5-5---3-3-3----1-1-1-2-1-1-1-2-

BY MATTY
PLEASE rate this tab!
00:00 / 00:00
Otros videos de esta canción
Repetir
Otros videos de esta canción
Compositor no encontrado.
2 exhibiciones
00:00 / 00:00
OK