Cifra Club

Beeswax

Nirvana

Tab de bajo: Versão 2
   -------

G-----------------------|
D-----------------------|
A-2-2-2-1-0-0-0-0-0-----|
E-------------------4-4-|


G------------------|
D------------------|
A------------------|
E--0-0-3-3-3-0-0-0-|

G----------|
D----------|
A----------|
E--2-2-2-1-|
00:00 / 00:00
Otros videos de esta canción
Repetir
Otros videos de esta canción
Composición de Kurt Cobain
5 exhibiciones
00:00 / 00:00
OK