Cifra Club

Blandest

Nirvana

Bass tab: Principal
Verse:             and sometimes:
G|-------------------|-------------------|
D|-------------------|------------5-7----|
A|--3-5-3-0----------|--3-5-3-0----------|
E|-------------------|-------------------|


Chorus:
G|---------------------------------------------|
D|-----4---------------------------2-----------|
A|-----------2-3-4--3--2--0-2-3--4---4-3--2-0--|
E|--2------------------------------------------|

_______________________________________________________
Contribuição: Lucas Araujo Carvalho(wakko@liquid2k.com)
00:00 / 00:00
Other videos of this song
Repeat
Other videos of this song
Composed by Kurt Cobain
40 views
00:00 / 00:00
OK