Cifra Club

Cocaine Girl

Nirvana

Cifrado: Versão 2 (guitarra y guitarra eléctrica)
tono: D
Intro:
E|-------------------------- 
B|-------------------------- 
G|-----7-9-7------7----7-----
D|-9-9--9---9-6-6--7-7------
A|-------------------------- 
E|-------------------------- 

fill 1:
E|------------------------------------------------------------------ 
B|---------------------------------------------------------12-10b-10-----
G|------7-9b10-9---7-7-9-9b10-9---7-7-9-9b10-9---7-9/11-11------------11--
D|--9-9---------------9------------------9---------------------------------
A|------------------------------------------------------------------ 
E|------------------------------------------------------------------

fill 2:
E|----------------------------------------------------------------------------- 
B|---------------------------------------------------------10--10--10-10-10-----
G|------7-9b10-9---7-7-9-9b10-9---7-7-9-9b10-9---7-9/11-11---11--11---11-11-----
D|--9-9-------------9------------------9--------------------------------------------
A|----------------------------------------------------------------------------- 
E|-----------------------------------------------------------------------------

fill 3:
E|------------------------------------------------------------------- 
B|-------------------------------------------------------------------
G|------7-9b10-9---7-7-9-9b10-9---7-7-9-9b10-9----7-9/11-9-7-9-7-7----
D|--9-9-------------9--------------9----------------------------9-9---
A|------------------------------------------------------------------- 
E|-------------------------------------------------------------------
          
fill 4:
E|----------------------------------------------
B|----------------------------------------------
G|-------7-9b10-9---7-7-9-9b10-9---7-7-9-9b10-9---
D|--9-9--------------9--------------9-------------
A|---------------------------------------------- 
E|----------------------------------------------

Intro: 2x limpa e 2x com base Bm G# A

Verso: Bm G# A (junto com a intro)

Looking for a new kinda lover
Not a girl made of rubber
But someone 

Bridge: Em G F# A (junto com o fill 1: uma vez e o fill 2: uma vez)

who can make me feel how i wanna feel
And tell me all the things that i wanna hear
And make me lose control
And make me go insane
I wanna girl who does cocaine

Refrão: Bm G# A (junto com a intro)

Cocaine cocaine

Verso 2: Bm G# A (junto com a intro)

Screwed up is how she needs to be
With no clue of reality
Just wanting to 

Bridge: Em G F# A (junto com o fill 3: uma vez e com o fill 4: uma vez)

make me feel how i wanna feel
And tell me all the things that i wanna hear
And make me lose control
And make me go insane
I wanna girl who does cocaine

Solo:

Cocaaiiiiiiiiiiiiiiiiiiiiiiiiiiiiine!!!!!!!!!!!!!!!!!!

E|------------------------------------------7-7-7--10*7*10*7*10*7*10*7*10*7*10*7*10*7*10--------------------- 
B|---10b--10-7-10---5b-3---------0---------------------------------------------------------------9b-9b-9b-7--7--9-7- 
G|-----------------------4---2-4-5b-------------------------------------------------------------------------------9--7----
D|------------------------------------------------------------------------------------------------------
A|------------------------------------------------------------------------------------------------------ 
E|------------------------------------------------------------------------------------------------------ 

Intro: 2x limpa e 2x com base Bm G# A

Verso 3: Bm G# A (junto com a intro)

And now i'm washed up,
I've had my fun and i feel like the mud
Cause that girl 

Bridge: Em G F# A (junto com o fill 3 uma vez e com o fill 2 uma vez)

who could make me feel how i wanna feel
And tell me all the things that i wanna hear and make me lose
Control
And make me go insane yea that girl,
Who does cocaine

She left me for a snowman stay far (junto com a bateção d lata huhuhull)
00:00 / 00:00
Otros videos de esta canción
Repetir
Otros videos de esta canción
Compositor no encontrado.
Colaboración y revisión:
  • Rodolfo Pinto
7 exhibiciones
    • ½ Tono
    • A
    • Bb
    • B
    • C
    • Db
    • D
    • Eb
    • E
    • F
    • F#
    • G
    • Ab
  • Agregar a la lista
    00:00 / 00:00
    OK