Cifra Club

Cocaine Girl

Nirvana

Tab de bajo: Principal
primeiro é só a guitarra...
o baixo começa com a bateira =)


Estrofe
G-----------------------------------------------------------------------
D-----------------------------------------------------------------------  play 5 times
A-------2-2-2-2-2-2-----------------------------------------------------
E------------------------4-4---5-5-5------------------------------------

Refrão
G-----------------------------------------------------------------------
D----------------------------------------------------------------------- play 2 times
A-----------------------------------------------------------------------
E----0-0-0-0---2---3-3-3-3----5---3---2-2-2-2-2---5-5-5-5-5-------------

Ponte
G-----------------------------------------------------------------------
D----------------------------------------------------------------------- play 4 times
A---2-2-----------------------------------------------------------------
E----------5-5-----3-3----5-5-5-----------------------------------------


 1x estrofe
 1x refrão
 1x estrofe
 1x refrão
 1x ponte
 1x estrofe
00:00 / 00:00
Otros videos de esta canción
Repetir
Otros videos de esta canción
Compositor no encontrado.
Colaboración y revisión:
  • gabriela teixeira
74 exhibiciones
00:00 / 00:00
OK