Cifra Club

Do Re Mi

Nirvana

Tab de bajo: Principal
G|---------------|----------------|----------------|----------------|
D|---------------|----------------|----------------|----------------|
A|7---7-7-7-7----|----------------|4---4-4-4-4-----|----------------|
E|-----------(0)-|4---4-4-4-4-(0)-|------------(0)-|2---2-2-2-2-(0)-| (3x) 
 
(pré-refrão 3x)                  
G|----------------------------------|
D|----------------------------------|
A|2-----2-2-----2-2-----2--0-0-4-3--|
E|----------------------------------|
                                         
G|--------------------------------------------------------|
D|--------------------------------------------------------|
A|--------------------------------------5-5-5-5-5-5-5-5---|
E|2-----2-2-----2-2-----2---2-2-2-0-----------------------| 

(refrão 4x)
G|----------------|----------------|
D|----------------|----------------|
A|----------------|7---7-7-7-7-(0)-|
E|4---4-4-4-4-(0)-|----------------|

(pós-refrão 4x)
E|----------------|
B|----------------|
G|----------------|
D|-2-1------------|
A|-----4-2-0------|
E|-----------4-2-0| 

00:00 / 00:00
Otros videos de esta canción
Repetir
Otros videos de esta canción
Composición de Kurt Cobain
Colaboración y revisión:
  • Felipe Oliveira
101 exhibiciones
00:00 / 00:00
OK