Cifra Club

Down In The Dark

Nirvana

Cifrado: Principal (guitarra y guitarra eléctrica)
tono: E
Intro:

E|-0---0---0---0---0---0---3---0---0---0---0---0---0---0---0---0---0---0---0---0-|
B|-0---0---0---0---0---0---0---3---3---3---3---3---3---3---0---0---0---0---0---0-|
G|-1---1---1---1---1---1---1---1---3---3---3---3---3---3---0---0---0---0---0---0-|
D|-2---2---2---2---2---2---2---2---3---3---3---3---3---3---2---2---2---2---2---2-|
A|-2---2---2---2---2---2---2---2---0---0---0---0---0---0---2---2---2---2---2---2-|
E|-0---0---0---0---0---0---0---0---0---0---0---0---0---0---0---0---0---0---0---0-|

Verso: E  A  Em (5x)

Refrão:

E|-2---2---2---2---2---2---5---5---5---5---5---5---0---0---0---0---0---0----|
B|-2---2---2---2---2---2---5---5---5---5---5---5---0---0---0---0---0---0----|
G|-3---3---3---3---3---3---6---6---6---6---6---6---1---1---1---1---1---1----|
D|-4---4---4---4---4---4---7---7---7---7---7---7---2---2---2---2---2---2----| (4x)
A|-4---4---4---4---4---4---7---7---7---7---7---7---2---2---2---2---2---2----|
E|-2---2---2---2---2---2---5---5---5---5---5---5---0---0---0---0---0---0----|
00:00 / 00:00
Otros videos de esta canción
Repetir
Otros videos de esta canción
Composición de Mark Lenagan
Colaboración y revisión:
  • Danylo Santos
161 exhibiciones
    • ½ Tono
    • A
    • Bb
    • B
    • C
    • Db
    • D
    • Eb
    • E
    • F
    • F#
    • G
    • Ab
  • Agregar a la lista
    00:00 / 00:00
    OK