Cifra Club

Downer

Nirvana

Cifrado: Principal (guitarra y guitarra eléctrica)
tono: Ab (con acordes en la forma de A) Afinación: Eb Ab Db Gb Bb Eb
[Intro] E5  C5 

[Tab - Riff 1]

   E5        C5
E|------------------|
B|------------------|
G|-----------5-5-5--|
D|-2-2-2-2-2-5-5-5--| (4x)
A|-2-2-2-2-2-3-3-3--|
E|-0-0-0-0-0--------|


Portray sincerity
Act out of loyalty
Defend your free country
Wish away the pain
Hand out lobotomies
And save little families
Surrealistic fantasy
Bland, boring, plain!

( E5  C5  E5  C5 )
( E5  C5  E5  C5 )

[Tab - Riff 2]

 Bb5  B5 C5    B5 
E|----------------|
B|----------------|
G|----------------|
D|-8--9--10-10-9--| (8x)
A|-8--9--10-10-9--|
E|-6--7--8--8--7--|

[Riff 2]
Hold me down in restitution
Living out your date with fusion
Is the whole fleece shun in master?
Don't feel guilty, master writing

( E5  C5  E5  C5 )
( E5  C5  E5  C5 )

[Tab - Riff 3]

    A5   Bb5  B5   C5
E|--------------------------------|
B|--------------------------------|
G|------------9----10-10-10-10-0--|
D|--7----8----9----10-10-10-10-0--|
A|--7----8----7----8--8--8--8--0--|
E|--5----6------------------------|

A5       Bb5        B5 
Somebody says that they're
              C5
not much like I am, I know I can
A5       Bb5        B5
Make enough up the words
              C5
As you go along, I sing a song

( E5  A5  E5  A5 )
( E5  A5  E5  A5 )

Sickening pessimist hypocrite master
Conservative Communist apocalyptic bastard
Thank you dear God for putting me on this Earth
I feel very privileged in debt for my thirst!

( E5  A5  E5  A5 )
( E5  A5  E5  A5 )

[Riff 2]
Holy now is restitution
Living out your date with fusion
Is our whole fleece shun in bastard?
Don't feel guilty master writing

( E5  A5  E5  A5 )
( E5  A5  E5  A5 )

A5       Bb5        B5 
Somebody says that they're
              C5
not much like I am, I know I can
A5       Bb5        B5
Make enough up the words
              C5
As you go along, I sing a song

( E5  A5  E5  A5 )
( E5  A5  E5  A5 )

[Tab - Riff 4]

E|------------------|
B|------------------|
G|------------------|
D|------------------| (4x)
A|-----------3-3-3--|
E|-0-0-0-0-0--------|
00:00 / 00:00
Otros videos de esta canción
Repetir
Otros videos de esta canción
Composición de Krist Novoselic / Kurt Cobain
Colaboración y revisión:
  • Lucas Araújo
718 exhibiciones
    • ½ Tono
    • A
    • Bb
    • B
    • C
    • Db
    • D
    • Eb
    • E
    • F
    • F#
    • G
    • Ab
  • Agregar a la lista
    00:00 / 00:00
    OK