Cifra Club

Downer

Nirvana

Bass tab: Principal
Drop D tuning (D A D G)

Intro/Verse/after chorus
G:-----------------
D:-----------------
A:--------2-2-2----
D:-1-1-1-----------

Hold me now.........(continue palying this till the chorus)
G:-------------------------------
D:-------------------------------
A:-0-1-2-1-0-1-2-1-0-1-2-1.........
D:-------------------------------

Chorus (x2)
G:--------------------------------------
D:--------------------------------------
A:-----------------6-6-6-6-7-7-7-7------
D:-6-6-6-6-7-7-7-7----------------------	-


_______________________________________________________
Contribuição: Felipe Furlan da Rosa(fynonlipy@mtv.com.br)
00:00 / 00:00
Other videos of this song
Repeat
Other videos of this song
Composed by Krist Novoselic / Kurt Cobain
68 views
00:00 / 00:00
OK