Cifra Club

Dumb

Nirvana

Tab de bajo: Principal
Half step down (Eb Ab Db Gb)

Verse
Gb:-----------------------------
Db:-----------------------------
Ab:-----/2-0-2-----3-3-3-5---
Eb:-0-0--------3-3-------------

Chorus
(Always play a quick slide after the chorus)
Gb:------------------------
Db:------------------------
Ab:------------------------
Eb:-0-0-0-0-0-2-3-3-3-3-2--

Bridge (x3)
Gb:--------------------------------
Db:--------------------------------
Ab:-2-2-2-2-2-2-3-3-3-3-3-3-5-
Eb:---------------------------------

Last time
Ab:-2-2-2-2-2-2-3---and back to the verse

_______________________________________________________
Contribuição: vinicius gonçalves(vinnysouz@bol.com.br)
00:00 / 00:00
Otros videos de esta canción
Repetir
Otros videos de esta canción
Composición de Kurt Cobain
385 exhibiciones
00:00 / 00:00
OK