Cifra Club

Endless, Nameless

Nirvana

Cifrado: Principal (guitarra y guitarra eléctrica)
tono: C
Obs.: Esta música é a faixa bônus do CD Nevermind (não listada na
      capa do CD) e seu final apresenta improvisações.


Low E string is tuned way down... Tuning: Standard

MAIN RIFF

        bend everything
--------16-16-16-16-
--------15-15-15-15- higher fret numb are totally 
--------14-14-14-14- improvisated high up the neck
-------------------- 
0-0-0-0-------------
0-0-0-0-------------
PM______

SECOND RIFF

----------------------I
2b3r2p02b3r2p02b3r2p0-I
2b3r2p02b3r2p02b3r2p0-I
----------------------I
----------------------I
----------------------I

QUIET RIFF

-------------I-----------I
-------------I-----0-----I
-----0-----0-I--------0--I
-------------I--------0--I
3--3----3----I2--2--2----I
-------------I-----------I

The end is just pure noise jam, feedback, anti-solo and guitar smashing...I won't tab it...)
00:00 / 00:00
Otros videos de esta canción
Repetir
Otros videos de esta canción
Composición de Kurt Cobain
Colaboración y revisión:
  • Leonardo Santos
2.292 exhibiciones
    • ½ Tono
    • A
    • Bb
    • B
    • C
    • Db
    • D
    • Eb
    • E
    • F
    • F#
    • G
    • Ab
  • Agregar a la lista
    00:00 / 00:00
    OK