Cifra Club

Heart Shaped Box

Nirvana

Cifrado: Standard-tune (guitarra y guitarra eléctrica)
tono: E
Intro e Primeira parte:

       G#5       E5
E|-----------------------------------------------|
B|-----------------------------------------------|
G|-----------------------------------------------|
D|---------6--------2----------------------------|
A|------6---------2-------4-----4----4------4----|
E|---4----------0-------------4-----4---4-4------|

       G#5        E5
E|-----------------------------------------------|
B|-----------------------------------------------|
G|-----------------------------------------------|
D|---------6--------2-----/22-2------------------|
A|------6---------2----3-----0-----3-3--4--------|
E|---4----------0--------------------------------|

Refrão: 

 G#        E     C#
E|-4------0------4
B|-4------0------6
G|-5------1------6
D|-6------2------6
A|-6------2------4
E|-4------0------x

Solo:

E|--------------------------------------------------------------|
B|--9b\7---7b---6b-6-4-2-1---9b\7---7b--6b-6-4-2----------------|
G|------------------------------------------------3~~~~~~3------|
D|8------6----4------------8------6---4-----------3~~~~~~3------|
A|------------------------------------------------1~~~~~~1------|
E|--------------------------------------------------------------|
00:00 / 00:00
Otros videos de esta canción
Repetir
Otros videos de esta canción
Composición de Kurt Cobain
Colaboración y revisión:
  • robson corrêa
367 exhibiciones
    • ½ Tono
    • A
    • Bb
    • B
    • C
    • Db
    • D
    • Eb
    • E
    • F
    • F#
    • G
    • Ab
  • Agregar a la lista
    00:00 / 00:00
    Capítulos
    • Tocando a música
    • Dicas Iniciais / Equipamentos
    • Acordes da música
    • Tocando a Introdução
    • Introdução - Parte 1 de 2
    • Introdução - Parte 2 de 2
    • Tocando a Primeira Parte
    • Primeira Parte - Riff Principal (variação 1)
    • Primeira Parte - Riff Principal (variação 2)
    • Tocando o Primeiro Refrão
    • Refrão - Guitarra 1
    • Refrão - Guitarra 2
    • Refrão - Passagem
    • Tocando Segunda Parte - Solo
    • Solo - Parte 1 de 3
    • Solo - Parte 2 de 3
    • Solo - Parte 3 de 3
    • Encerramento
    • Ficha Técnica
    OK