Cifra Club

Heart Shaped Box

Nirvana

Cifrado: Versão 6 (guitarra y guitarra eléctrica)
tono: D
Introdução:

    ( A5 )       ( G )       ( E5 )
e|-----------------------------------------
B|----------------1------------------------
G|-----2-----------------------------------
D|---2---2----2----------2----------2------
A|-0--------3---------2----2------2---2----
E|------------------0--------0--0-------0--

e|---------------------------------
B|----------------1----------------
G|-----2---------------------------
D|---2---2----2--------------------
A|-0--------3---------2202--1-0----
E|------------------0--------------


She eyes me like a pisces when I am weak
I've been locked inside your heart-shaped box
for weeks
I've been drawn into your magnet tar pit trap
I wish I could eat your cancer when you turn black

Distorçao:
Refrão (x3):

    A5       F5            D5
G|-2-2-4b-|-----4b-|-4-4---4-----4b-| (x2)
D|-2-2----|-3-3----|-----3---2-2----|
A|-0-0----|-3-3----|----------------|
D|--------|-3-3----|----------------|

Hey, Wait, I've got a new complaint
Forever in debt to your priceless advice

           F5                  D7
D|-3-3-3-3-3-3-3-3-|-/4-4--4-----0-|
A|-3-3-3-3-3-3-3-3-|------0--3-3---|
D|-3-3-3-3-3-3-3-3-|---------------|

Your advice

SOLO:
                                                     G#5   B   B5
E|------------------------------|--------------------------------
B|---7#---7#---5#--4-2-0--------|7#---7#---5#--4-2-0-------4-----
G|-----------------------1----/4|--------------------1-----4---4-
D|------7----6------------------|---7----6-----------1---------4-
A|------------------------------|--------------------------------
E|------------------------------|--------------------------------
00:00 / 00:00
Otros videos de esta canción
Repetir
Otros videos de esta canción
Composición de Kurt Cobain
Colaboración y revisión:
  • Angelo André
91 exhibiciones
    • ½ Tono
    • A
    • Bb
    • B
    • C
    • Db
    • D
    • Eb
    • E
    • F
    • F#
    • G
    • Ab
  • Agregar a la lista
    00:00 / 00:00
    OK